Cheques

Per aggiungere un elenco personale è necessario effettuare il
o

Spinetta y los Socios del Desierto

Versione
studio
pubblicato da
iri
Tono
A-
A+
Scorrere
A -> La
Video
Accordi
Traduzione
	 
[Riff]
e|---------------------------|--------------------------------|

b|---------------------------|--------------------------------|

g|---------------------------|--------------------------------|

D|-----------------------2-1-|--------------------------2-1---|x2

A|---------------0--0--2----2|---------------0--0-2-0-2-----2-|

E|-0-0---0-4-2-0-------------|-0-0---0-4-2-0------------------|

e|---------------------------|--------------------------------|

b|---------------------------|--------------------------------|

g|---------------------------|----------------2---------------|

D|-----------------------2-1-|----------------2---------------|

A|---------------0--0--2----2|----------------0---------------|

E|-0-0---0-4-2-0-------------|-0-0---0-4-2-0------------------|

[Tab]
E7/9# A7 E7/9# A7

e|-------|-0--0---------|----------------------|-0--0--------|

b|-8--8--|-2--2---------|-8--8--10b12b10-8-10-8|-2--2--------|

g|-7--7--|-0--0---------|-7--7-----------------|-0--0--------|

D|-6--6--|-2--2---------|-6--6-----------------|-2--2--------|

A|-7--7--|-0--0--2------|-7--7-----------------|-0--0---2----|

E|-------|---------3b--3|----------------------|---------3b-3|

E7/9# A7 E7/9# A7
e|----------------------|-0--0--------|----------------------|-0---|

b|-8--8--10b12b10-8-10-8|-2--2--------|-8--8--10b12b10-8-10-8|-2---|

g|-7--7-----------------|-0--0--------|-7--7-----------------|-0---|

D|-6--6-----------------|-2--2--------|-6--6-----------------|-2---|

A|-7--7-----------------|-0--0---2----|-7--7-----------------|-0---|

E|----------------------|---------3b-3|----------------------|-----|

[Versetto]
E7/9# A7
Casualmente yo te conocí
E7/9# A7
una noche como hoy
E7/9# A7
tu vestido eléctrico me hirió
E7/9# A7
vos bailabas y decías:

shake it, shake it, shake it, shake it, baby
[Riff]
e|---------------------------|--------------------------------|

b|---------------------------|--------------------------------|

g|---------------------------|--------------------------------|

D|-----------------------2-1-|--------------------------2-1---|x2

A|---------------0--0--2----2|---------------0--0-2-0-2-----2-|

E|-0-0---0-4-2-0-------------|-0-0---0-4-2-0------------------|

e|---------------------------|--------------------------------|

b|---------------------------|--------------------------------|

g|---------------------------|----------------2---------------|

D|-----------------------2-1-|----------------2---------------|

A|---------------0--0--2----2|----------------0---------------|

E|-0-0---0-4-2-0-------------|-0-0---0-4-2-0------------------|

[Versetto]
E7/9# A7
Luego te mudaste con tu séquito
E7/9# A7
a mi lujosa mansión
E7/9# A7
hasta casi entro en tu narcogate
E7/9# A7
vos bailabas y decías:

shake it, shake it, shake it, shake it, baby
[Riff]
e|---------------------------|--------------------------------|

b|---------------------------|--------------------------------|

g|---------------------------|--------------------------------|

D|-----------------------2-1-|--------------------------2-1---|x2

A|---------------0--0--2----2|---------------0--0-2-0-2-----2-|

E|-0-0---0-4-2-0-------------|-0-0---0-4-2-0------------------|

e|---------------------------|--------------------------------|

b|---------------------------|--------------------------------|

g|---------------------------|----------------2---------------|

D|-----------------------2-1-|----------------2---------------|

A|---------------0--0--2----2|----------------0---------------|

E|-0-0---0-4-2-0-------------|-0-0---0-4-2-0------------------|

[Solo]
e|-----------------------------------------------------------------|

b|---10/12-10-8---8-10-8-10-8-10-10/12-10-8-------8----10/12-10-8--|

g|--------------9----------------------------9-7-----9-------------|

G|-----------------------------------------------------------------|

A|-----------------------------------------------------------------|

E|-----------------------------------------------------------------|

e|---12b--------12-10----------12-10----------12-10----------12-10-----------|

b|--------10-12-------12-10-12-------12-10-12-------12-10-10-------12-10-12--|

g|---------------------------------------------------------------------------|

D|---------------------------------------------------------------------------|

A|---------------------------------------------------------------------------|

E|---------------------------------------------------------------------------|

e|-12/17b-15-17-15-17-15-17-15-17-15-17-15--------------|

b|-----------------------------------------17-15-17-----|

g|------------------------------------------------------|

D|------------------------------------------------------|

A|------------------------------------------------------|

E|------------------------------------------------------|

e|-----------------------------9-10-9-------10b-----------|

b|---10/12\-10-8-10---12-10-12--------12-10-----10/12-10--|

g|--------------------------------------------------------|

D|--------------------------------------------------------|

A|--------------------------------------------------------|

E|--------------------------------------------------------|

e|-----------------------------|

b|---8---8---------------------|

g|-----9---9-7-9-9-7-----------|

D|-------------------9-7-5-----|

A|-------------------------7---|

E|-----------------------------|

[Riff]
e|---------------------------|--------------------------------|

b|---------------------------|--------------------------------|

g|---------------------------|--------------------------------|

D|-----------------------2-1-|--------------------------2-1---|x2

A|---------------0--0--2----2|---------------0--0-2-0-2-----2-|

E|-0-0---0-4-2-0-------------|-0-0---0-4-2-0------------------|

e|---------------------------|--------------------------------|

b|---------------------------|--------------------------------|

g|---------------------------|----------------2---------------|

D|-----------------------2-1-|----------------2---------------|

A|---------------0--0--2----2|----------------0---------------|

E|-0-0---0-4-2-0-------------|-0-0---0-4-2-0------------------|

[Versetto]
E7/9# A7
De nuestro amor tan solo me queda hoy
E7/9# A7
un absurdo secador
E7/9# A7
me fundiste hasta el BMW
E7/9# A7
y yo lo que hago es garpar cheques

cheques, cheques, cheques, cheques
[Riff]
e|---------------------------|--------------------------------|

b|---------------------------|--------------------------------|

g|---------------------------|--------------------------------|

D|-----------------------2-1-|--------------------------2-1---|x2

A|---------------0--0--2----2|---------------0--0-2-0-2-----2-|

E|-0-0---0-4-2-0-------------|-0-0---0-4-2-0------------------|

e|---------------------------|--------------------------------|

b|---------------------------|--------------------------------|

g|---------------------------|----------------2---------------|

D|-----------------------2-1-|----------------2---------------|

A|---------------0--0--2----2|----------------0---------------|

E|-0-0---0-4-2-0-------------|-0-0---0-4-2-0------------------|

[Solo]
e|-----------12---------12----------12---------12/17b-15-------12-|

b|---12-10-8----12-10-8----12-10-12----12-10-8-----------12-10----|

g|----------------------------------------------------------------|

D|----------------------------------------------------------------|

A|----------------------------------------------------------------|

E|----------------------------------------------------------------|

e|----------------10----------------------------------------------7--|

b|---10/12\--10-8----12-10-12-10/12-8-10-8-------8-10/12\-10-8-10----|

g|-----------------------------------------9---9---------------------|

D|-------------------------------------------------------------------|

A|-------------------------------------------------------------------|

E|-------------------------------------------------------------------|

e|---9-7-10-9-7----7h9h10h9h7-------10/12b--|

b|--------------10------------12-10---------|

g|------------------------------------------|

D|------------------------------------------|

A|------------------------------------------|

E|------------------------------------------|

e|-----------12------------------12-10----------12-10----------12-10----------12-10-|

b|---12-10-8----12\10-8-10-10/12-------12-10-12-------12-10-12-------12-10-12-------|

g|----------------------------------------------------------------------------------|

D|----------------------------------------------------------------------------------|

A|----------------------------------------------------------------------------------|

E|----------------------------------------------------------------------------------|

e|------------12-17b--12/10-10----12\10h7---10-12b----------12-------------------12/15b----------|

b|---12-10-12------------------12--------10---------12h1012----12\10-8-10-12h10---------15/17b17-|

g|-----------------------------------------------------------------------------------------------|

D|-----------------------------------------------------------------------------------------------|

A|-----------------------------------------------------------------------------------------------|

E|-----------------------------------------------------------------------------------------------|

[Riff]
e|---------------------------|--------------------------------|

b|---------------------------|--------------------------------|

g|---------------------------|--------------------------------|

D|-----------------------2-1-|--------------------------2-1---|x2

A|---------------0--0--2----2|---------------0--0-2-0-2-----2-|

E|-0-0---0-4-2-0-------------|-0-0---0-4-2-0------------------|

e|---------------------------|--------------------------------|

b|---------------------------|--------------------------------|

g|---------------------------|----------------2---------------|

D|-----------------------2-1-|----------------2---------------|

A|---------------0--0--2----2|----------------0---------------|

E|-0-0---0-4-2-0-------------|-0-0---0-4-2-0------------------|

Questo sito utilizza i cookie