Cielito Lindo

To add a personal list must
or

Divididos

Version
studio
published by
iri
Tone
A-
A+
Slide
A -> La
Video
Chords
Translation
	 
[Tab]
e|-3-3--------|-3-3----------|-3-3----------|

b|-5-5--5-7-5-|-5-5--5-7-5---|-5-5--5-7-3-1-|

g|------5-7-5-|------5-7-5---|------5-7-4-2-|

D|------------|--------------|--------------|

A|------------|--------------|--------------|

e|------------|--------------|--------------|

G
e|-------------------|----------------|-----7-|

b|-7-7-7-7--5-5--3---|-3h5h3--3--3--2-|--8--8-|

g|-7-7-7-7--5-5--4---|-4-----4--4--1--|--9----|

D|-------------------|----------------|-------|

A|-------------------|----------------|-------|

e|-------------------|----------------|-------|

[Verse]
G
Ese lunar que tienes
D
cielito lindo junto a tu boca
D
no se lo des a nadie
G
cielito lindo a mi me toca
G
Ese lunar que tienes
D
cielito lindo junto a tu boca
D
no se lo des a nadie
G
cielito lindo a mi me toca.
[Chorus]
G C D G
Ay, ay, ay, ay canta y no llores
C
por que cantando se alegran
D G
cielito lindo los corazones.
[Chorus]
G5 C5 D5 G5
Ay, ay, ay, ay canta y no llores
C5
por que cantando se alegran
D5 G5
cielito lindo los corazones
[Chorus]
G5 C5 D5 G5
Ay, ay, ay, ay canta y no llores
C5
por que cantando se alegran
B5 C5 C#5 G
cielito lindo los corazones.
[Chorus]
G5 C5 D5 G5
Ay, ay, ay, ay canta y no llores
C5
por que cantando se alegran
B5 C5 C#5 G
cielito lindo los corazones