Asi Soy Yo

To add a personal list must
or

El Cuarteto de Nos

Version
studio
published by
rafah
Tone
A-
A+
Slide
A -> La
Video
Chords
Translation
	 
[Intro]
[Verse]
Bm F#
No tengo penas, ni tengo amores
Bm
y así no sufro de sinsabores.
Bm F#
Con todo el mundo estoy a mano
Bm
como no juego ni pierdo ni gano.
[Verse]
Bm F#
No tengo mucho ni tengo poco,
Bm
como no opino ni me equivoco.
Bm F#
Y como metas yo no me trazo
Bm
nunca supe lo que es un fracaso.
[Verse]
A Bm
Alegría y tristeza es lo mismo
A Bm
para mi que no me interesa sentir,
Em Bm
porque en el ángulo de la vida
F# Bm
he decidido ser la bisectriz.
[Chorus]
Em F# Bm
Oooohh, así soy yo.
Em F# Bm
Oooohh, así soy yo.
Em F# Bm
Oooohh, así soy yo.
Em F# Bm
Oooohh, así soy yo.
[Verse]
Bm F#
No me involucro en la pareja
Bm
y así no sufro cuando me dejan.
Bm F#
A nadie quise jamás en serio
Bm
y entonces nunca lloro en los entierros.
[Verse]
Bm F#
No pasa nada si no me muevo
Bm
por eso todo me chupa un huevo.
Bm F#
Y no me mata la indecisión
Bm
si “should I stay, or should I go”.
[Verse]
A Bm
“Ojos que no ven corazón que no siente”
A Bm
dijo un ciego cornudo una vez.
Em Bm
Y no soy como Hamlet Perez,
F# Bm
no me importa nada si ser o no ser.
[Chorus]
Em F# Bm
Oooohh, así soy yo.
Em F# Bm
Oooohh, así soy yo.
Em F# Bm
Oooohh, así soy yo.
Em F# Bm
Oooohh, así soy yo.
[Tab]
A Bm A Bm Em Bm F# Bm

1)-----------------------2---------------------------

2)---------------------3-----------------------------

3)—2-2-2-2---2-4-4-4-4-----2-2-2---2-4---------------

4)---------5---------------------4-------------------

5)---------------------------------------------------

6)---------------------------------------------------

----------------2--------2-2-------------------------

----3-3-5-5-3-5--------3-----5-5-5-5-3-2-3-----------

4-4--------------4-4-4-------------------------------

-----------------------------------------------------

-----------------------------------------------------

-----------------------------------------------------

[Verse]
Bm F#
Dirán algunos: “Ay que insensible!”,
Bm
otros dirán “Que vacío y simple”.
Bm F#
Y esas palabras las lleva el viento,
Bm
como no escucho no me caliento.
[Verse]
A Bm
No estuve arriba ni abajo,
A Bm
ya ni mejoro ni voy a empeorar.
Em Bm
Y como nunca empiezo nada
F# Bm
no me pone ansioso poder terminar.
[Chorus]
Em F# Bm
Oooohh, así soy yo...
Em F# Bm
Oooohh, así soy yo...
Em F# Bm
Oooohh, así soy yo...
Em F# Bm
Oooohh, así soy yo...
[Chorus]
Em F# Bm
Oooohh, así soy yo...
Em F# Bm
Oooohh, así soy yo...
Em F# Bm
Oooohh, así soy yo...
Em F# Bm
Oooohh, así soy yo...
[Chorus]
Em F# Bm
Oooohh, así soy yo...
Em F# Bm
Oooohh, así soy yo...
Em F# Bm
Oooohh, así soy yo...
Em F# Bm
Oooohh, así soy yo...
This site uses cookies