Without Me

To add a personal list must
or

Halsey

Version
studio
published by
rafah
Tone
A-
A+
Slide
A -> La
Video
[Capo on 4]
Chords
	 
[Intro]
Bm7 Dsus2 A G
e|--------2---0---|----------------|--------0-------|----------------|

B|------3---------|----------------|------2-----3---|----------------|

G|----2-----------|----------------|----2-----------|----------------|

D|--4-------------|----------------|--2-------------|----------------|

A|2---------------|----------------|0---------------|----------------|

E|----------------|----------------|----------------|----------------|

Bm7 Dsus2 A Em7
e|--------2---0---|----------------|--------0-------|----------------|

B|------3---------|--------3-------|------2-----3---|--------2-------|

G|----2-----------|----------------|----2-----------|----------------|

D|--4-------------|----------------|--2-------------|----------------|

A|2---------------|----------------|0---------------|----------------|

E|----------------|----------------|----------------|----------------|

[Verse]
Bm7 Dsus2
Found you when your heart was broke
A G
I filled your cup until it overflowed
Bm Dsus2
Took it so far to keep you close (keep you close)
A Em7
I was afraid to leave you on your own
[Pre-Chorus]
Bm7 Dsus2
I said I'd catch you if you fall (fall)
A G
And if they laugh, then fuck 'em all (all)
Bm7
And then I got you off your knees
Dsus2
Put you right back on your feet
A Em7
Just so you could take advantage of me
[Chorus]
Bm7 Dsus2
Tell me, how's it feel sittin' up there?
A G
Feeling so high, but too far away to hold me
Bm7 Dsus2
You know I'm the one who put you up there
A Em7
Name in the sky, does it ever get lonely?
Bm7 Dsus2
Thinking you could live without me
A G
Thinking you could live without me
Bm7 Dsus2
Baby, I'm the one who put you up there
A Em7
I don't know why (yeah, I don't know why)
Bm7 Dsus2
Thinking you could live without me
A G
Live without me
Bm7 Dsus2
Baby, I'm the one who put you up there
A Em7
I don't know why (I don't know why, yeah, yeah)
[Verse]
Bm7 Dsus2
Gave love 'bout a hundred tries (hundred tries)
A G
Just running from the demons in your mind
Bm7 Dsus2
Then I took yours and made 'em mine (mine)
A Em7
I didn't notice 'cause my love was blind
[Pre-Chorus]
Bm7 Dsus2
I said I'd catch you if you fall (fall)
A G
And if they laugh, then fuck 'em all (all)
Bm7
And then I got you off your knees
Dsus2
Put you right back on your feet
A Em7
Just so you could take advantage of me
[Chorus]
Bm7 Dsus2
Tell me, how's it feel sittin' up there?
A G
Feeling so high, but too far away to hold me
Bm7 Dsus2
You know I'm the one who put you up there
A Em7
Name in the sky, does it ever get lonely?
Bm7 Dsus2
Thinking you could live without me
A G
Thinking you could live without me
Bm7 Dsus2
Baby, I'm the one who put you up there
A Em7
I don't know why (yeah, I don't know why)
Bm7 Dsus2
Thinking you could live without me
A G
Live without me
Bm7 Dsus2
Baby, I'm the one who put you up there
A Em7
I don't know why (I don't know why, yeah, yeah)
[Bridge]
Bm7 Dsus2
You don't have to say just what you did (what you did)
A G
I already know (I know)
Bm7 Dsus2
I had to go and find out from them (oh-woah)
A Em7
So tell me, how's it feel? (oh-woah)
[Chorus]
Bm7 Dsus2
Tell me, how's it feel sittin' up there?
A G
Feeling so high, but too far away to hold me
Bm7 Dsus2
You know I'm the one who put you up there
A Em7
Name in the sky, does it ever get lonely?
Bm7 Dsus2
Thinking you could live without me
A G
Thinking you could live without me
Bm7 Dsus2
Baby, I'm the one who put you up there
A Em7
I don't know why (yeah, I don't know why)
This site uses cookies