Agua

To add a personal list must
or

Jarabe de Palo

Version
studio
published by
rafah
Tone
A-
A+
Slide
A -> La
Video
Chords
Translation
	 
[Tab]
Guitarra 1

e||------------|-------|--------|---------|

B||------6-----|-------|--------|-5h6h5/6-|

G||----------7-|-5h7p5-|-5h7----|---------|

D||-6/7----7---|-------|-----/7-|---------|

A||------------|-------|--------|---------|

E||------------|-------|--------|---------|

e||--------------------|----------------------|------------|

B||-6/8p6-----6h8--6/8-|----6-8--8/10--8h6--6-|-6--8--10---|

G||--------7-----------|-7--------------------|-7--9--10---|

D||--------------------|----------------------|------------|

A||--------------------|----------------------|------------|

E||--------------------|----------------------|------------|



Guitarra 2

Dm7 Gm C7 F

e||-------1-|---------|---------|---------|

B||---1-----|-------3-|-------5-|-------1-|

G||-----2---|---3-----|---3-----|---2-----|

D||-0-------|-----5---|-----5---|-----3---|

A||---------|---------|-3-------|---------|

E||---------|-3-------|---------|-1-------|

[Verse]
Dm7 Gm
Como quieres ser mi amiga
C7 F
si por ti daría la vida,
Dm7 Gm
si confundo tu sonrisa
C7 F
por camelo si me miras.
Dm7 Gm
razón y piel,
C7 F
difícil mezcla,
Dm7 Gm
agua y sed,
C7 F
serio problema.
[Verse]
Dm7 Gm
Como quieres ser mi amiga
C7 F
si por ti me perdería,
Dm7 Gm
si confundo tus caricias
C7 F
por camelo si me mimas.
Dm7 Gm
pasión y ley,
C7 F
difícil mezcla,
Dm7 Gm
agua y sed,
C7 F
serio problema
[Chorus]
C Dm7
Cuando uno tiene sed
C Bb
pero el agua no está cerca,
C Dm7
cuando uno quiere beber
C Bb
pero el agua no está cerca.
[Post-Chorus]
Bb F Dm7 A
Qué hacer, tú lo sabes
Bb F Dm7 A
conservar la distancia,
Bb F Dm7 A
renunciar a lo natural,
Bb F Dm7 A
y dejar que el agua corra.
[Verse]
Dm7 Gm
Como vas ser mi amiga
C7 F
cuando esta carta recibas,
Dm7 Gm
un mensaje hay entre líneas
C7 F
cómo quieres ser mi amiga.
[Chorus]
C Dm7
Cuando uno tiene sed
C Bb
pero el agua no está cerca,
C Dm7
cuando uno quiere beber
C Bb
pero el agua no está cerca,
This site uses cookies