The Eagle And The Hawk

To add a personal list must
or

John Denver

Version
studio
published by
rafah
Tone
A-
A+
Slide
A -> La
Video
Chords
	 
[Intro]
E E E E E
E|--0----0----0----0----0--|

B|--0----0----0----0----0--|

G|--8----6----4----2----1--| x2

D|--9----7----5----3----2--|

A|--9----7----5----3----2--|

E|--0----0----0----0----0--|

[Verse]
D
I am the eagle, I live in high country,
C
in rocky cathedrals that reach to the sky.
D
I am the hawk and there’s blood on my feathers,
C
but time is still turning, they soon will be dry.
D
And all those who see me, and all who believe in me,
F E A
share in the freedom I feel when I fly.
[Verse]
D D/C G/B A
Come dance with the west wind and touch on the mountain tops.
D Bm G A
Sail o’er the canyons and up to the stars.
D D/C G/B D
Reach for the heavens and hope for the future
D/C G/B Em A
and all that we can be and not we are.
[Tab]
E E E E E
E|--0----0----0----0----0--|

B|--0----0----0----0----0--|

G|--8----6----4----2----1--| x2

D|--9----7----5----3----2--|

A|--9----7----5----3----2--|

E|--0----0----0----0----0--|