Mala Vibra

To add a personal list must
or

Laguna Pai

Version
studio
published by
iri
Tone
A-
A+
Slide
A -> La
Video
Chords
Translation
	 
[Intro]
e|--------------------------|

B|--------------7-8-7-------|

G|-9/11--9-7----------------|

D|-----------9--------------|

A|--------------------------|

E|--------------------------|

e|----------------9-10-9----7-10-7-7-|

B|-----------------------------------|

G|-9/11--9-7-------------------------|

D|-----------9-----------------------|

A|-----------------------------------|

E|-----------------------------------|

e|------------------------9-10-9----7-10-7-7-|

B|-7-8-7------------7-7----------------------|

G|--------9/11--9-7--------------------------|

D|-------------------------------------------|

A|-------------------------------------------|

E|-------------------------------------------|

[Intro]
| Bm | F#m |x5
[Verse]
Bm F#m Bm
Mala vibra no vengas
F#m Bm
Que aquí esta todo bien
F#m Bm
Mala suerte no vengas
F#m
Que contigo no es
[Chorus]
D C
Lo que unos llaman progreso
D C
Para muchos otros es perder
D C
Cuando unos están contentos
D C
A muchos otros no les va bien
[Post-Chorus]
G
Dicen que es la suerte que más
G
Mal agüero
[Verse]
Bm F#m
Mala vibra no vengas
Bm
no vengas no, no no
F#m Bm
Que me vo'a defender
F#m Bm
Van con fe mis ideas
F#m
Van con ritmo mis pies
[Verse]
D C
Fuiste pintando demonios
D C
En la antigua pared
D C
Ya son muchos años
D C
Viendo ángeles caer
[Post-Chorus]
G
Ándate más allá
G
Mal agüero
[Solo]
| Bm | F#m |x8
[Bridge]
G
Ya no vengas más,
G
Mal agüero
[Verse]
Bm F#m
Mala vibra no vengas
Bm
no vengas no, no no
F#m
que me vo'a defender
Bm F#m
Van con fe mis ideas,
Bm F#m
van con ritmo mis pies
Bm
Mala vibra no vengas,
F#m
no vengas más por acá,
Bm F#m
Mala suerte contigo no es,
Bm
Mala vibra no vengas,
F#m
no vengas más por acá
Bm
Oye te digo,
F#m
que mi gente se va a defender
[Outro]
Bm
No vengas más, no vengas más
F#m
No vengas más, no vengas más
Bm
No vengas más,
F#m
Son muchos años manchando la historia
Bm
No vengas más,
F#m
Son muchos años manchando la historia
Bm F#m
Mal agüero, mala vibra, mala suerte, gobierno..
[Outro]
| Bm | F#m |
This site uses cookies