Angelito

To add a personal list must
or

Los Piojos

Version
studio
published by
rafah
Tone
A-
A+
Slide
A -> La
Video
Chords
Translation
	 
[Intro]
Em Em C
|---------------------------------------------------------------------------

|---------------------------------------------1-----------------------------

|---------------------------------------------0-----------------------------

|---2-----2--------------2-----2--------------2-----------------------------

|---2-----2--------------2-----2----------2---3-----------------------------

|---0-----0-----0--3--2--0-----0-----0--3-----------------------------------

[Verse]
A
Harto del viejo borracho
F
Angelito camina por la calle
A
ángel caído va
F
ángel caído y sin talle
A
Una revancha quizás
F
a lo que no pudo ser
A
bronca que raja la espalda y
F
se está haciendo tarde
G A
y parece que va a llover.
[Tab]
Em Em C
|---------------------------------------------------------------------------

|---------------------------------------------1-----------------------------

|---------------------------------------------0-----------------------------

|---2-----2--------------2-----2--------------2-----------------------------

|---2-----2--------------2-----2----------2---3-----------------------------

|---0-----0-----0--3--2--0-----0-----0--3-----------------------------------

[Verse]
A
Harto del viejo borracho
F
Angelito camina por la calle
A
un poco por caminar
F
y mucho por olvidarse
A
ángel caído va
F
a lo que no pudo ser
A
tirando de una esperanza y
F
se está haciendo tarde
G A
y parece que va a llover.
[Chorus]
G F E D G
Voy a caminar, voy a descender
F E D G
el subte tomar, y después veré
F E D G
hacia aquel lugar, no quiero volver
F E D C
puedo conversar con una pared...
[Tab]
Em Em C
|---------------------------------------------------------------------------

|---------------------------------------------1-----------------------------

|---------------------------------------------0-----------------------------

|---2-----2--------------2-----2--------------2-----------------------------

|---2-----2--------------2-----2----------2---3-----------------------------

|---0-----0-----0--3--2--0-----0-----0--3-----------------------------------

[Bridge]
A
Subido al límite del
F
viejo edificio
A
Angelito sonríe y se excita
F
de pensar en caer.
A
Caer caer
F
borde del atardecer
A
todo por un precipicio
F
se está haciendo tarde
G A
y parece que va a llover.
[Chorus]
G F E D G
Voy a caminar, voy a descender
F E D G
el subte tomar, y después veré
F E D G
hacia aquel lugar, no quiero volver
F E D C
puedo conversar con una pared...
[Tab]
Em Em C
|---------------------------------------------------------------------------

|---------------------------------------------1-----------------------------

|---------------------------------------------0-----------------------------

|---2-----2--------------2-----2--------------2-----------------------------

|---2-----2--------------2-----2----------2---3----------------------------- |---0-----0-----0--3--2--0-----0-----0--3-----------------------------------