Yo miro tu amor

To add a personal list must
or

Luis Alberto Spinetta

Version
studio
published by
iri
Tone
A-
A+
Slide
A -> La
Video
Chords
Translation
	 
Intro = Riff
[Riff]
e|-----0-------------------------------| |-------------------------|

b|-------3-----------------------------| |-------------------------|

g|-2/4------2p0---0--4--2b4p3p2p0------| |-------------------------|

D|--------------2-----------------2--2-|x4|-0-2-0-----0-------------|

A|-------------------------------------| |-------2-0---2-----------|

E|-------------------------------------| |---------------5-4-3b--0-|

[Verse]
Em6/9 Dm6/9
En tanto que la lluvia, así
Bsus4 A5
lava, mis desgracias
G5 (riff)
yo miro tu amor
[Riff]
e|-----0-------------------------------| |-------------------------|

b|-------3-----------------------------| |-------------------------|

g|-2/4------2p0---0--4--2b4p3p2p0------| |-------------------------|

D|--------------2-----------------2--2-|x4|-0-2-0-----0-------------|

A|-------------------------------------| |-------2-0---2-----------|

E|-------------------------------------| |---------------5-4-3b--0-|

[Verse]
Em6/9 Dm6/9
Hay un dogo que me asusta nena
Bsus4 A5
quizás, inútilmente
G5 (riff)
apuro mi paso
[Riff]
e|-----0-------------------------------| |-------------------------|

b|-------3-----------------------------| |-------------------------|

g|-2/4------2p0---0--4--2b4p3p2p0------| |-------------------------|

D|--------------2-----------------2--2-|x4|-0-2-0-----0-------------|

A|-------------------------------------| |-------2-0---2-----------|

E|-------------------------------------| |---------------5-4-3b--0-|

[Solo]
E
[Riff]
e|-----0-------------------------------| |-------------------------|

b|-------3-----------------------------| |-------------------------|

g|-2/4------2p0---0--4--2b4p3p2p0------| |-------------------------|

D|--------------2-----------------2--2-|x4|-0-2-0-----0-------------|

A|-------------------------------------| |-------2-0---2-----------|

E|-------------------------------------| |---------------5-4-3b--0-|

[Verse]
Em6/9 Dm6/9
Violento, mediodía gris
Em6/9 Dm6/9
la radio pone fuego
G5 (riff)
a la lenta cumbia.
[Riff]
e|-----0-------------------------------| |-------------------------|

b|-------3-----------------------------| |-------------------------|

g|-2/4------2p0---0--4--2b4p3p2p0------| |-------------------------|

D|--------------2-----------------2--2-|x4|-0-2-0-----0-------------|

A|-------------------------------------| |-------2-0---2-----------|

E|-------------------------------------| |---------------5-4-3b--0-|

[Outro]
E