Sleep

To add a personal list must
or

My Chemical Romance

Version
studio
published by
paulRo
Tone
A-
A+
Slide
A -> La
Video
Chords
	 
[Intro]
C Fm Gsus4 G 3x
[Verse]
C Fm
Some say, now suffer all the children
Gsus4 G
And walk away a savior,
C Fm
Or a madman and polluted
Gsus4 G
From gutter institutions.
C Fm
Don't you breathe for me,
Gsus4 G
Undeserving of your sympathy,
C Fm Gsus4 G
Cause there ain't no way that I'm sorry for what I did.
[Chorus]
Ab
And through it all
Fm C
How could you cry for me?
Bb
Cause I don't feel bad about it.
Ab
So shut your eyes,
Fm
Kiss me goodbye,
C Em
And sleep.
C Em
Just sleep.
Fm Ab G C
The hardest part is letting go of your dreams.
[Verse]
Fm Gsus4 G
A drink for the horror that I'm in,
C Fm
For the good guys, and the bad guys,
Gsus4 G
For the monsters that I've been.
C Fm
Three cheers for tyranny,
Gsus4 G
Unapologetic apathy,
C Fm Gsus4 G
Cause there ain't no way that I'm coming back again.
[Chorus]
Ab
And through it all
Fm C
How could you cry for me?
Bb
Cause I don't feel bad about it.
Ab
So shut your eyes,
Fm
Kiss me goodbye,
C Em
And sleep.
C Em
Just sleep.
Fm Ab G C Fm Gsus4 G
The hardest part's the awful things that I've seen.
C Fm Gsus4 G
C Fm Gsus4 G
Just sleep.
C Fm Gsus4 G
Just sleep.
C Fm Gsus4 G
Just sleep.
C Fm Gsus4 G
Just sleep.
C Fm Gsus4 G
Just sleep.
C Fm Gsus4 G
Just sleep.
[Tab]
e|-15-------------------------------|

B|------13---15-15/16-15-13---------|

G|---12---12------------------------| 4x

D|----------------------------------|

A|----------------------------------|

E|----------------------------------|

e|--15~-----------------------------|

B|----------------------------------|

G|----------------------------------|

D|----------------------------------|

A|----------------------------------|

E|----------------------------------|

This site uses cookies