Hey Hey, My My (Into the Black)

To add a personal list must
or

Neil Young

Version
studio
published by
rafah
Tone
A-
A+
Slide
A -> La
Video
Chords
	 
[Riff]
Am G Fmaj7 Am G Fmaj7
e|----0---------3-------------0-0-0--0-0-0--|----0---------3-----------------0-0-0--0-0-0-|

B|----1---------0-------------1-1-1--1-1-1--|----1---------0-----------------1-1-1--1-1-1-|

G|----2---------0-------------2-2-2--2-2-2--|----2---------0-----------------2-2-2--2-2-2-|

D|----2-------0-0-------------3-3-3--3-3-3--|----2-------0-0-----0-2-0---0---3-3-3--3-3-3-|

A|--0---0-2-3---2-0-2-0-----0---------------|--0---0-2-3---2-----------3---0--------------|

E|--------------3---------3-----------------|--------------3------------------------------|

[Verse]
Am7 G Fmaj7
Hey Hey, my my
Am7 G Fmaj7
Rock and roll can never die
C Em Em7
There's more to the picture
Am F
Than meets the eye
Am7 G Fmaj7
Hey Hey, my my
[Riff]
Am G Fmaj7 Am G Fmaj7
e|----0---------3-------------0-0-0--0-0-0--|----0---------3-----------------0-0-0--0-0-0-|

B|----1---------0-------------1-1-1--1-1-1--|----1---------0-----------------1-1-1--1-1-1-|

G|----2---------0-------------2-2-2--2-2-2--|----2---------0-----------------2-2-2--2-2-2-|

D|----2-------0-0-------------3-3-3--3-3-3--|----2-------0-0-----0-2-0---0---3-3-3--3-3-3-|

A|--0---0-2-3---2-0-2-0-----0---------------|--0---0-2-3---2-----------3---0--------------|

E|--------------3---------3-----------------|--------------3------------------------------|

[Verse]
Am7 G Fmaj7
It's out of the blue and into the black
Am7 G Fmaj7
They give you this but you pay for that
C Em Em7 Am F
And once you're gone you can never come back
Am7 G
When you're out of the blue
Fmaj7
And into the black
[Riff]
Am G Fmaj7 Am G Fmaj7
e|----0---------3-------------0-0-0--0-0-0--|----0---------3-----------------0-0-0--0-0-0-|

B|----1---------0-------------1-1-1--1-1-1--|----1---------0-----------------1-1-1--1-1-1-|

G|----2---------0-------------2-2-2--2-2-2--|----2---------0-----------------2-2-2--2-2-2-|

D|----2-------0-0-------------3-3-3--3-3-3--|----2-------0-0-----0-2-0---0---3-3-3--3-3-3-|

A|--0---0-2-3---2-0-2-0-----0---------------|--0---0-2-3---2-----------3---0--------------|

E|--------------3---------3-----------------|--------------3------------------------------|

[Verse]
Am7 G Fmaj7
The king is gone but he's not forgotten
Am7 G Fmaj7
This is the story of a Johnny Rotten
C Em Em7 Am F
It's better to burn out 'cause rust never sleeps
Am7 G Fmaj7
The king is gone but he's not forgotten
[Riff]
Am G Fmaj7 Am G Fmaj7
e|----0---------3-------------0-0-0--0-0-0--|----0---------3-----------------0-0-0--0-0-0-|

B|----1---------0-------------1-1-1--1-1-1--|----1---------0-----------------1-1-1--1-1-1-|

G|----2---------0-------------2-2-2--2-2-2--|----2---------0-----------------2-2-2--2-2-2-|

D|----2-------0-0-------------3-3-3--3-3-3--|----2-------0-0-----0-2-0---0---3-3-3--3-3-3-|

A|--0---0-2-3---2-0-2-0-----0---------------|--0---0-2-3---2-----------3---0--------------|

E|--------------3---------3-----------------|--------------3------------------------------|

[Verse]
Am7 G Fmaj7
Hey Hey, my my
Am7 G Fmaj7
Rock and roll can never die
C Em Em7
There's more to the picture
Am F
Than meets the eye
[Riff]
Am G Fmaj7 Am G Fmaj7
e|----0---------3-------------0-0-0--0-0-0--|----0---------3-----------------0-0-0--0-0-0-|

B|----1---------0-------------1-1-1--1-1-1--|----1---------0-----------------1-1-1--1-1-1-|

G|----2---------0-------------2-2-2--2-2-2--|----2---------0-----------------2-2-2--2-2-2-|

D|----2-------0-0-------------3-3-3--3-3-3--|----2-------0-0-----0-2-0---0---3-3-3--3-3-3-|

A|--0---0-2-3---2-0-2-0-----0---------------|--0---0-2-3---2-----------3---0--------------|

E|--------------3---------3-----------------|--------------3------------------------------|

This site uses cookies