Aonde Quer Que Eu Vá

To add a personal list must
or

Os Paralamas do Sucesso

Version
studio
published by
iri
Tone
A-
A+
Slide
A -> La
Video
[Capo on 5]
Chords
Translation
	 
[Tab]
E|--------------------------------|

B|--------------------------------|

G|--------------------------------|

D|--------------------------------|

A|-0h2----------------------------|

E|------0-------------------------|

[Verse]
Em7 G
Olhos fechados
Em7 G
Pra te encontrar
Em7 G
Não estou ao seu lado
Em7 G
Mas posso sonhar
[Chorus]
C9 Am7
E aonde quer que eu vá
G D11/F# Em7
Levo você no olhar
C9 Am7
Aonde quer que eu vá
G D11/F# Em7
Aonde quer que eu vá
[Tab]
E|--------------------------------|

B|--------------------------------|

G|--------------------------------|

D|-----0--------------------------|

A|-0h2----------------------------|

E|-------0------------------------|

[Verse]
Em7 G
Não sei bem certo
Em7 G
Se é só ilusão
Em7 G
Se é você já perto
Em7 G
Se é intuição
[Chorus]
C9 Am7
E aonde quer que eu vá
G D11/F# Em7
Levo você no olhar
C9 Am7
Aonde quer que eu vá
G D11/F# Em7
Aonde quer que eu vá
[Bridge]
A5(9) F#m
Longe daqui
C#m
Longe de tudo
D A5(9)
Meus sonhos vão te buscar
F#m
Volta pra mim
C#m
Vem pro meu mundo
D A5(9)
Eu sempre vou te esperar
F#m C#m D C B7
Larará, lararára
[Tab]
E|--------------------------------|

B|--------------------------------|

G|--------------------------------|

D|-----0--------------------------|

A|-0h2----------------------------|

E|-------0------------------------|

[Verse]
Em7 G
Não sei bem certo
Em7 G
Se é só ilusão
Em7 G
Se é você já perto
Em7 G
Se é intuição
[Chorus]
C9 Am7
E aonde quer que eu vá
G D11/F# Em7
Levo você no olhar
C9 Am7
Aonde quer que eu vá
G D11/F# Em7
Aonde quer que eu vá
[Bridge]
C9 Am7 G D11/F# Em7
Lá, larará, larará
C9 Am7 G
Lá, larará, larará
D11/F# Em7
Aonde quer que eu vá
[Outro]
C9 Am7 G D11/F# Em7
Lá, larará, larará
C9 Am7 G D11/F# Em7
Lá, larará, larará larárá
C9 Am7 G
Lá, larará, larará
D11/F# Em7
Aonde quer que eu vá
[Tab]
E|--------------------------------|

B|--------------------------------|

G|--------------------------------|

D|-----0--------------------------|

A|-0h2----------------------------|

E|-------0------------------------|

This site uses cookies