Future Days

To add a personal list must
or

Pearl Jam

Version
studio
published by
iri
Tone
A-
A+
Slide
A -> La
Video
[Capo on 1]
Chords
	 
[Intro]
e|----------------|---------------------|

B|--1--3--1--1h3--|--3/5-3-1---1-/3-/5--|

G|----------------|----------0----------|

D|----------------|---------------------|

A|----------------|---------------------|

E|----------------|---------------------|

e|-----------------------------------|--------------------|

b|------1-3-1------3------1-----1h3--|--3/5-3-1---1-/3-1--|

g|----0----------0------0-----0------|--------------------|

D|--2----------2------2-----2--------|--------------------|

A|-----------------------------------|--------------------|

E|-----------------------------------|--------------------|

[Verse]
C F
If I ever were to lose you
F C
I'd surely lose myself
C F
Everything I have found, dear
F C
I’ve not found by myself
[Pre-Chorus]
C F C
Try and sometimes you'll succeed to make this man of me.
C F C
All my stolen missing parts I’ve no need for anymore.
[Chorus]
C C/B C F C
I believe, and I believe ‘cause I can see
C C/B Am F C
Our future days, days of you and me.
[Tab]
e|--0--1-0----------1--|--1-1--1-1-1-1-0--|

B|--1------3-1------1--|--1-1--1-1-1-1-1--|

G|--0----------0----2--|--2-2--2-2-2-2-0--|

D|--2---------------3--|--3-3--3-3-3-3-2--| x2

A|--3---------------3--|--3-3--3-3-3-3-3--|

E|---------------1--1--|--1-1--1-1-1-1----|

[Verse]
C F
Back when I was feeling broken
F C
I focused on a prayer,
C F
You came deep as any ocean
F C
Did something out there hear?
[Pre-Chorus]
C F C
All the complexities and games, no one wins but somehow they're still played
C F C
All the missing crooked hearts they may die but in us they live on
[Chorus]
C C/B C F C
I believe, and I believe ‘cause I can see
C C/B Am F C
Our future days, days of you and me.
[Bridge]
G Am
When hurricanes and cyclones rage
G C
When winds turn dirt into dust
G Am
When floods they came or tides they raised
F G
Even closer became us
[Verse]
C F
All the promises at sundown
F C
I met them like the rest
C F
All the demons used to come round
F C
I'm greatful now they've left
[Pre-Chorus]
C F C
So persistent in my ways, Angel I am here to stay
C F C
No resistance, no alarms, please this is too good to be gone
[Chorus]
C C/B C F C
I believe, and I believe ‘cause I can see
C C/B Am F C
Our future days, days of you and me.
F C F C
You and me... Days, you and me.