Por

To add a personal list must
or

Pescado Rabioso

Version
studio
published by
iri
Tone
A-
A+
Slide
A -> La
Video
Chords
Translation
	 
[Verse]
D Dsus2/C#
Árbol, hoja, salto, luz,
Bm A
aproximación,
G F#m
mueble, lana, gusto, pie,
F G A F G (Riff)
Te, marcas, miradas
[Riff]
e|------------|

B|-0-0h1p1----|

G|--------2-0-|

D|------------|

A|------------|

E|------------|

[Verse]
D Dsus2/C#
Nube, loba, dedo, cal,
Bm A
gesticulador,
G F#m
Hijo, cama, menta, sien,
F G A F G
Rey, fin, sol, amigo
[Bridge]
A5 F# F#maj7 F#7 Emaj7
[Riff]
e|-----------------|

B|-2-4-2-4-2-------|

G|-1-1-1-1-1---4-3-|

D|-2-2-2-2-2-------|

A|-----------------|

E|-----------------|

[Bridge]
D D/E D/F# D/E
[Verse]
A5 F# F#maj7 F#7 Emaj7
Cruz, alga, dado, cielo, riel,
(riff) D D/E D/F# D/E D D/E D/F# D/E
Estalactita, mira - dor, corazón
[Riff]
e|-----------------|

B|-2-4-2-4-2-------|

G|-1-1-1-1-1---4-3-|

D|-2-2-2-2-2-------|

A|-----------------|

E|-----------------|

[Verse]
F# F#maj7 F#7 Emaj7
Hombre, rayo, felpa, sed
(riff) D D/E D/F# D/E D D/E D/F# D/E
Extremidad, insola - ción, parecer
F#aug7 Dm7
Eaug7 Dm6 C Bb Am G F
[Outro]
C Bb Am G F
[Riff]
C Bb Am G F
e|-----------------------------------1|

B|--------3--------1----------0-----1-|

G|-----0------3--------2-----0-----2--| D|---2------3--------2------0-----3---|

A|-3------1--------0-------------3----|

E|------------------------3-----1-----|

Por