No-One but You (Only the Good Die Young)

To add a personal list must
or

Queen

Version
studio
published by
rafah
Tone
A-
A+
Slide
A -> La
Video
Chords
	 
[Chords Used]

A Am A7 Asus4 B Bm

e|--0---0---0---0---2---2-

B|--2---1---2---3---4---3-

G|--2---2---0---2---4---4--

D|--2---2---2---2---4---4--

A|--0---0---0---0---2---2--

E|------------------2---2--

Bb C D Dm D7 D9

e|--1---0---2---1---2---0--

B|--3---1---3---3---1---1--

G|--3---0---2---2---2---2--

D|--3---2---0---0---0---0--

A|--1---3---------------x--

E|--1-------------------2--

E E7 F F#m7 G G7

e|--0---0---1---2---3---3--|

B|--0---0---1---2---3---3--|

G|--1---1---2---2---0---4--|

D|--2---0---3---2---0---3--|

A|--2---2---3---4---2---5--|

E|--0---0---1---2---3---3--|

[Verse]
C G C
A hand above the water
A Dm A Dm F G7
An angel reaching for the sky
G C Am D7
Is it raining in heaven -
D G F G7
Do you want us to cry?
[Verse]
C G C
And everywhere the broken-hearted
A Dm A Dm
On every lonely avenue
C Bb F
No-one could reach them
C G A7
No-one but you
[Chorus]
D F#m7 G
One by one
A A7 D F#m7 G
Only the good die young
A A7 D F#m7 Bm
They're only flying too close to the sun
E7 D
And life goes on -
Asus4 A G
Without you...
[Verse]
C G C
Another tricky situation
A Dm A Dm F G7
A get to drowin' in the blues
G C Am D7
And I find myself thinkin'
D G F G7
Well - what would you do?
[Verse]
C G C
Yes! - it was such an operation
A Dm A Dm
Forever paying every due
C Bb F
Hell, you made a sensation
C G A7
You found a way through - and
[Chorus]
D F#m7 G
One by one
A A7 D F#m7 G
Only the good die young
A A7 D F#m7 Bm A
They're only flyin' too close to the sun
E7 D
We'll remember -
Asus4 A G
Forever...
[Verse]
C G C
And now the party must be over
A Dm A Dm F G7
I guess we'll never understand
G C Am D7
The sense of your leaving
D G F G7
Was it the way it was planned?
[Verse]
C G C
And so we grace another table
A Dm A Dm
And raise our glasses one more time
C Bb F
There's a face at the window
C G A7
And I ain't never, never sayin' goodbye...
[Outro]
D F#m7 G
One by one
A A7 D F#m7 G
Only the good die young
A A7 D F#m7 Bm A
They're only flyin' too close to the sun
E7 D
Cryin' for nothing
E7 Em7 D
Cryin' for no-one
G D
No-one but you
D C G D9 D
39