La Melodía De Dios

To add a personal list must
or

Tan Biónica

Version
studio
published by
rafah
Tone
A-
A+
Slide
A -> La
Video
Chords
Translation
	 
[Tab]
e|-0-0----------0-

b|-----3-3-1-1-3--- (x8)

g|-----------------

[Verse]
C Am
Todas las mañanas del mundo y esta angustia barata
F Dm G
el reloj amenaza y retrasa, y la falta que haces en la casa
C Am
cada cosa que no decis porque te esta haciendo daño
F Dm G
en el nombre de mi desengaño, a la noche te extraño, te extraño
[Pre-Chorus]
Am G# G F#
vivo como siempre, desarmado, sobre mí
[Chorus]
C G Am G F
Con vos es 4 de noviembre cada media hora
C F G C
atrasare las horas, horas, horas,
Em Am G F
que algo te libre de las penas acompañadoras
C F G C
cuando te sientas sola, sola, sola
[Tab]
Teclado: el rasgueo es igual al estribillo o coro

e|-8-8-8-7-5-3-5-5-5-5---------------------------

b|----------------------6-5-5-3-5-3-3-1-----------

g|------------------------------------------------

e|-8-8-8-7-5-3-5-5-5-5---------------------------

b|----------------------6-5-3-1-6-5-5-3-5-3-3-1---

g|------------------------------------------------

Termina el teclado y suena esto

e|---------------------------------

b|--1-1-3-1---1-3-1---1-3-1---1-3-1-

g|----------------------------------

[Verse]
C Am
Toda tu mesita de luz lleva el color de tu esencia
F
las mañanas exigen clemencia,
Dm G
la catastrofe que hizo tu ausencia
C Am
cuando se libere mi alma de tus ojos de encanto,
F
cuando el frio no enfríe tanto
Dm G
los domingos y jueves de espanto
[Pre-Chorus]
Am G# G F#
vivo como siempre, desarmado, sobre mí
F G
yoooooooooo buscare algún sol ahí
[Chorus]
C G Am G F
Con vos es 4 de noviembre cada media hora
C F G C
atrasare las horas, horas, horas,
Em Am G F
que algo te libre de las penas acompañadoras
C F G C
cuando te sientas sola, sola, sola
G Am G F
cuando me faltes este otoño y se despinten solas
C F G C
tus acuarelas todas, todas, todas
Em Am G F
no quiero nada mas sin vos no quiero estar a solas
C F G C
no quiero Barcelona, dijo hola
[Tab]
Teclado:

e|-8-8-8-7-5-3-5-5-5-5---------------------------

b|----------------------6-5-5-3-5-3-3-1-----------

g|------------------------------------------------

e|--8-8-8-7-5-3-5-5-5-5---------------------------

b|----------------------6-5-3-1-6-5-5-3-5-3-3-1---

g|------------------------------------------------

[Solo]
C Am F G
e|----------------------------------------------------------------

b|------------------------------0-1-------------------------------

g|------------------1/2-1/2-2-2-----2-0---------0-----------------

D|--------------0-2---------------------3-2-0-----3-2-0-----------

A|--2/3-2/3-3-3-------------------------------3---------3-2-0-----

E|------------------------------------------------------------3---


/ = Deslizar el dedo desde el primer traste hasta el otro traste al sonar

G
e|--3-5-3-1-0-------------------

b|------------3-1-0-1-----------

g|------------------------------

[Chorus]
C G Am G F
Con vos es 4 de noviembre cada media hora
C F G C
atrasaré las horas, horas, horas,
Em Am G F
que algo te libre de las penas acompañadoras
C F G C
cuando te sientas sola, sola, sola
G Am G F
cuando me faltes este otoño y se despinten solas
C F G C
tus acuarelas todas, todas, todas
Em Am G F
no quiero nada mas sin vos no quiero estar a solas
C F G C
no quiero Barcelona, dijo hola
[Outro]
G Am G F
Uuuuuuuuuuuuuuuuuhhhhhhhhhhhhhhhhhhh
C F G C
atrasaré las horas, horas, horas,
Em Am G F
atrasaré las horas, atrasaré la horas
C F G C
atrasaré las horas, horas, horas,
G Am G F
atrasaré las horas, atrasaré la horas
C F G C
atrasaré las horas, horas, horas,
Em Am G F
atrasaré las horas, atrasaré la horas
C F G C
atrasaré las horas, horas, horas
This site uses cookies