Version
studio
published by
rafah
Tone
A-
A+
Slide
A -> La
Video
Chords
	 
[Riff]
G7 C9 G7 C9
e|--12h13-11h12-9h10------------|-12h13-13-13-11h12-12-12-9h10-------------|

b|-------------------8-8-8-8-8--|------------------------------8-8--8-8-8--|

g|------------------------------|------------------------------------------|

D|------------------------------|------------------------------------------|

A|------------------------------|------------------------------------------|

E|------------------------------|------------------------------------------|

G7 C9 G7
e|--12h13--11h12--9h10---------8-7----------------8-7/3--|

b|----------------------8-8--8-----8-8-8--8-8-8-8--------|

g|-------------------------------------------------------|

D|-------------------------------------------------------|

A|-------------------------------------------------------|

E|-------------------------------------------------------|

[Intro]
G C
[Verse]
G C
Love, love me do
G C
You know I love you
G C
I'll always be true
C C/G G
So pleeeeeease... Love me do
[Verse]
G C
Love, love me do
G C
You know I love you
G C
I'll always be true
C C/G G C G C
So pleeeeeease... Love me do
[Bridge]
D C F G
Someone to love, somebody new
D C F G
Someone to love, someone like you
[Verse]
G C
Love, love me do
G C
You know I love you
G C
I'll always be true
C C/G G C G C
So pleeeeeease... Love me do
[Solo]
D7 C G D7 C G Gsus G D7
[Verse]
G C
Love, love me do
G C
You know I love you
G C
I'll always be true
C C/G G
So pleeeeeease... Love me do
G C G C G C
Love me do, Yeah love me do, yeah love me do...
This site uses cookies