12:51

To add a personal list must
or

The Strokes

Version
studio
published by
iri
Tone
A-
A+
Slide
A -> La
Video
Chords
	 
[Tab]
E5 E5 E
e|-12------|-12------|----|

B|---12----|---12----|--9-|

G|-----9---|-----9---|--9-|

D|-------9-|-------9-|--9-|

A|---------|---------|----|

E|---------|---------|----|

[Intro]
[Am - E]x2
[Verse]
E A
Talk to me now I'm older
F#m B
Your friend told you 'cause I told her
E A
Friday nights have been lonely
F#m B
Change your plans and then phone me
[Bridge]
[E C#m B]x4
[Verse]
E A
We could go and get 40s
F#m B
Fuck goin' to that party
E A
Oh really, your folks are away now?
F#m B
Alright, let's go, you convinced me
[Bridge]
[E C#m B]x4
[Bridge]
Am E
12:51 is the time my voice
Am
Found the words I sought
E
Is it this stage I want?
Am E
The world is shutting out, for us
Am
We were tense for sure
E
But we was confident
[Verse]
E A
Kiss me now that I'm older
F#m B
I won't try to control you
E A
Friday nights have been lonely
F#m B
Take it slow but don't warn me
E A
We'd go out and get 40's
F#m B
Then we'd go to some party
E A
Oh really, your folks are away now?
F#m B
Alright I'm coming...
[Tab]
E5 C#5 B5 E5 C#5 B5 E
e|------------------------------------------------|

b|-12----------------------12---------------------|

g|-----13-11-13---13-11-13----13-11-13-9-13-11-13-|

D|------------------------------------------------|x2

A|------------------------------------------------|

E|------------------------------------------------|