14 Botellas

Para añadir a una lista personal debes
ó

2 Minutos

Versión
estudio
publicado por
iri
Tono
A-
A+
Deslizar
A -> La
Video
Acordes
	 
[Intro]
e|---------------------|

B|---------------------|

G|---------------------|

D|-7-7-7-7-7-7-7-7-7---|

A|-5-5-5-5-5-5-5-5-5---|

E|---------------------|

[Tablatura]
e|-------------------------------------------------------------|

B|-------------------------------------------------------------|

G|-------------------------------------------------------------|

D|-7-7-6-6-4-4-----------------------------------6/7-7-7-7-7---|

A|-5-5-4-4-2-2-5-5-5/7-7-7-7-7---5-5-4-4-5-5-7-7-4/5-5-5-5-5---|

E|-------------3-3-3/5-5-5-5-5---3-3-2-2-3-3-5-5---------------|

e|-------------------------------------------------------------|

B|-------------------------------------------------------------|

G|-------------------------------------------------------------|

D|-7-7-6-6-4-4-----------------------------------7-------------|

A|-5-5-4-4-2-2-5-5-5/7-7-7-7-7---5-5-4-4-5-5-7-7-5-------------|

E|-------------3-3-3/5-5-5-5-5---3-3-2-2-3-3-5-5---------------|

[Tablatura]
e|-------------------------------------------------------------|

B|-------------------------------------------------------------|

G|-------------------------------------------------------------|

D|-7-7-6-6-4-4-----------------------------------6/7-7-7-7-7---|

A|-5-5-4-4-2-2-5-5-5/7-7-7-7-7---5-5-4-4-5-5-7-7-4/5-5-5-5-5---|

E|-------------3-3-3/5-5-5-5-5---3-3-2-2-3-3-5-5---------------|

e|-------------------------------------------------------------|

B|-------------------------------------------------------------|

G|-------------------------------------------------------------|

D|-7-7-6-6-4-4-----------------------------------7-------------|

A|-5-5-4-4-2-2-5-5-5/7-7-7-7-7---5-5-4-4-5-5-7-7-5-------------|

E|-------------3-3-3/5-5-5-5-5---3-3-2-2-3-3-5-5---------------|

[Tablatura]
e|-------------------------------------------------------------|

B|-------------------------------------------------------------|

G|-7-7-7-7-7-7-------------------------------------------------|

D|-5-5-5-5-5-5-7-7-7-7-7-7-------------7-7-7-7-7-7-------------|

A|-------------5-5-5-5-5-5-7-7-7-7-7-7-5-5-5-5-5-5-------------|

E|-------------------------5-5-5-5-5-5-------------------------|

e|-------------------------------------------------------------|

B|-------------------------------------------------------------|

G|-------------------------------------7-----------------------|

D|-------------7-7-7-7-7-7-------------5-----------------------|

A|-5-5-5-5-5-5-5-5-5-5-5-5-7-7-7-7-7-7-------------------------|

E|-3-3-3-3-3-3-------------5-5-5-5-5-5-------------------------|

[Intro]
e|-------------------------------------------------------------|

B|-------------------------------------------------------------|

G|-------------------------------------------------------------|

D|-7-7-6-6-4-4-----------------------------------6/7-7-7-7-7---|

A|-5-5-4-4-2-2-5-5-5/7-7-7-7-7---5-5-4-4-5-5-7-7-4/5-5-5-5-5---|

E|-------------3-3-3/5-5-5-5-5---3-3-2-2-3-3-5-5---------------|

e|-------------------------------------------------------------|

B|-------------------------------------------------------------|

G|-------------------------------------------------------------|

D|-7-7-6-6-4-4-----------------------------------7-------------|

A|-5-5-4-4-2-2-5-5-5/7-7-7-7-7---5-5-4-4-5-5-7-7-5-------------|

E|-------------3-3-3/5-5-5-5-5---3-3-2-2-3-3-5-5---------------|

Este sitio usa cookies