Bye Bye Bombay

Para añadir a una lista personal debes
ó

Afterhours

Versión
estudio
publicado por
iri
Tono
A-
A+
Deslizar
A -> La
Video
Acordes
Traducción
	 
Drop-D tuning
[Tablatura]
e|---------------------------------------------------------------------------|

b|---------------------------------------------------------------------------|

g|---------------------------------------------------------------------------|

D|---------------------------------------------------------------------------|

A|-4h5p4h5p4h5p4---5---7--9---9--10-9-10/12---10-9-10-9\7--4h5p4h5p4h5p4--5--|

E|---------------0---0--0---0---------------0---------------------------0----|

[Estrofa]
D A
Steso su un balcone guardo il porto
F#/A# Bm
Sembra un cuore nero e morto
D
Che mi sputa una poesia
A
Nella quale il giorno in cui mi lancerò
A# Bm
E non mi prenderanno
G
Neanche tu mi prenderai
[Pre-Estribillo]
Bm G
Io non tremo
Bm G
È solo un po' di me che se ne va
[Estribillo]
F#m Bm F#m Bm
Giù nella città, dove ogni strada sa
F#m Bm
Condurre sino a te e io no
D G D G
Bye bye, bye bye, bye bye, bye bye, Bombay
[Tablatura]
e|----------------------------------|----------------------------------|

b|----------------------------------|----------------------------------|

g|----------------------------------|----------------------------------|

D|----------------------------------|----------------------------------|

A|-4h5p4---4h5-4-5--5--7-7-7\5-4-5--|-4h5p4---4h5-4-5--5--7-7-7\5-4-5--|

E|----------------------------------|----------------------------------|

e|------------------------------------------|

b|------------------------------------------|

g|------------------------------------------|

D|------------------------------------------|

A|--9-7-9-10--10-9-9-9--7-9-10-10--9-9-9-7--|

E|------------------------------------------|

[Estrofa]
D A F#/A#
Sai, Mimì, che la paura è una cicatrice?
Bm D
Che sigilla anche l'anima più dura?
A A#
Non si può giocare con il cuore della gente
Bm A G
Se non sei un professionista, ma ho la cura
[Pre-Estribillo]
Bm G
Io non tremo
Bm G
È solo un po' di me che se ne va
[Estribillo]
F#m Bm F#m Bm
È sporca la città, tutto cercherà
F#m Bm
Di condurre sino a te e io no
D G D G
Bye bye, bye bye, bye bye, bye bye, Bombay
[Tablatura]
e|-----------------------------|--------------------------------|

b|--------------------------14-|--------------------------17-14-|

g|-14---11-10-11-10-11-14------|-14---11-10-11-10-11-14---------|

D|-----------------------------|--------------------------------|

A|-----------------------------|--------------------------------|

E|-----------------------------|--------------------------------|

e|--------------------------|-----------------------------|

b|-----------------------14-|--------------------------17-|

g|---11-10-11-10-11-14------|-14---11-10-11-10-11-14------|

D|--------------------------|-----------------------------|

A|--------------------------|-----------------------------|

E|--------------------------|-----------------------------|

e|-----------------------------|-----------------------------|

b|--------------------------14-|--------------------------17-|

g|-14---11-10-11-10-11-14------|-14---11-10-11-10-11-14------|ver

D|-----------------------------|-----------------------------|

A|-----------------------------|-----------------------------|

E|-----------------------------|-----------------------------|

[Puente]
D G
[Outro]
D G
Bye bye, bye bye, bye bye, bye bye
D G
Bye bye, bye bye, bye bye, bye bye
Este sitio usa cookies