Las cosas de la vida

Para añadir a una lista personal debes
ó

Aterciopelados

Versión
estudio
publicado por
iri
Tono
A-
A+
Deslizar
A -> La
Video
Acordes
	 
[Estrofa]
G
F G
Por Dios, ojalá coja juicio
F G
se había ido varias veces de la casa
F G
preocupado, le trajeron al cura del sector
F G
para colmo lo expulsaron del colegio
F G
con el tiempo, le pagaron psiquiatras
F G
lo internaron un domingo por la tarde
F G
su mamá siempre decía que eran malas compañías
F G
pero el si que lo sabía son las cosas de la vida.
[Estribillo]
F
hay ay ay ay
F
hay ay ay ay
G
aaaay ay ay ay
F
se le advirtió, se le advirtió
G
y nada valió y nada valió
F
le entró por un oído
G
y le salió por el otro
F
y el pobre andaba tan ido
G
van dos tuercas que le faltan
F
hay ay ay ay
F
hay ay ay ay
G
aaaay ay ay ay
armónica
[Tablatura]
F

E-----------1-----1----------------1-----1-------------------1-----1-------

B-----------1-----1----------------1-----1-------------------1-----1-------

G-----------2-----2----------------2-----2-------------------2-----2-------

D-----------3-----3----------------3-----3-------------------3-----3-------

A-----------3-----3---------3---------------------------------3-----3-------

E----1--------------------------------------------------1----------------------

F

E-----------------1-------1-------------

B-----------------1-------1-------------

G-----------------2-------2-------------

D-----------------3-------3-------------

A-------3---------------------------------

E------------------------------------------

G

E--------------3------3-------------------3-------3-------------3--------3

B--------------3------3-------------------3-------3-------------3--------3

G--------------4------4-------------------4-------4-------------4--------4

D--------------5------5-------------------5-------5-------------5--------5

A--------------5-------5---------5--------------------------------5-------5

E-----3-------------------------------------------------------3------------------

Este sitio usa cookies