Going Away to College

Para añadir a una lista personal debes
ó

Blink-182

Versión
estudio
publicado por
sunlight
Tono
A-
A+
Deslizar
A -> La
Video
Acordes
Traducción
	 
[Intro]
Clean guitar
e|-------------------------| e|-------------------------|

B|-4--4--4-4-4-2--2--2-2-2-| B|-4--4--4-4-4-2--2--2-2-2-|

G|-4--4--4-4-4-4--4--4-4-4-| G|-4--4--4-4-4-4--4--4-4-4-|

D|-4--4--4-4-4-4--4--4-4-4-| x2 D|-2--2--2-2-2-2--2--2-2-2-| x2

A|-2--2--2-2-2-2--2--2-2-2-| A|-------------------------|

E|-------------------------| E|-------------------------|

B E
e|--------------------------| e|---------------------------------------|

B|-4--4--4-4-4--2--2--2-2-2-| B|-4--4--4-4-4-2--2--2-2-2-4--4--4-4-4-2-|

G|-4--4--4-4-4--4--4--4-4-4-| G|-4--4--4-4-4-4--4--4-4-4-4--4--4-4-4-4-|

D|-4--4--4-4-4--4--4--4-4-4-| x2 D|-2--2--2-2-2-2--2--2-2-2-2--2--2-2-2-2-|

A|-2--2--2-2-2--2--2--2-2-2-| A|---------------------------------------|

E|--------------------------| E|---------------------------------------|

Distortion

B B E F# F#
e|--------------|--------------|--------------|-------|-------|

B|------------4-|------------4-|------------4-|-----2-|-----2-|

G|-----4--------|-----4--------|-----4--------|-------|-------|

D|--------------|--------------|-2-2----2-2---|-4-4---|-4-4---| x2

A|-2-2----2-2---|-2-2----2-2---|--------------|-------|-------|

E|--------------|--------------|--------------|-------|-------|

[Estrofa]
B
Please take me by the hand
E F#
It's so cold out tonight
B
I'll put blankets on the bed
E F#
I won't turn out the light
B
Just don't forget
E F#
to think about me
B
And I won't forget you
E F#
"I'll write you once a week" she said
[Tablatura]
Distortion
B B E F# F#

e|--------------|--------------|--------------|-------|-------|

B|------------4-|------------4-|------------4-|-----2-|-----2-|

G|-----4--------|-----4--------|-----4--------|-------|-------|

D|--------------|--------------|-2-2----2-2---|-4-4---|-4-4---| x2

A|-2-2----2-2---|-2-2----2-2---|--------------|-------|-------|

E|--------------|--------------|--------------|-------|-------|

[Estrofa]
B
Why does it feel the same
E F#
To fall in love or break it off
B
And if young love is just a game
E F#
Then I must have missed the kick off
B
Don't depend on
E F#
Me to ever follow through on
B
Anything but
E
I'd go through
F#
hell for you and
[Estribillo]
G#m E
I haven't been this scared
B F#
In a long time
G#m E
And I'm so unprepared
B F#
So here's your valentine
G#m E
Bouquet of clumsy words
B F#
A simple melody
G#m E
This world's an ugly place
B F#
But you're so beautiful to me
[Tablatura]
Distortion
B B E F# F#
e|--------------|--------------|--------------|-------|-------|

B|------------4-|------------4-|------------4-|-----2-|-----2-|

G|-----4--------|-----4--------|-----4--------|-------|-------|

D|--------------|--------------|-2-2----2-2---|-4-4---|-4-4---| x2

A|-2-2----2-2---|-2-2----2-2---|--------------|-------|-------|

E|--------------|--------------|--------------|-------|-------|

[Estrofa]
B
I'll think about the times
E F#
She kissed me after class
B
And she put up with my friends
E F#
I acted like an ass
B
I'd ditch my lecture
E F#
To watch the girls play soccer
B
Is my picture
E F#
Still hanging in your locker?
[Estribillo]
G#m E
I haven't been this scared
B F#
In a long time
G#m E
And I'm so unprepared
B F#
So here's your valentine
G#m E
Bouquet of clumsy words
B F#
A simple melody
G#m E
This world's an ugly place
B F#
But you're so beautiful.
[Tablatura]
Clean
B E
e|-------------------------| e|-------------------------|

B|-4--4--4-4-4-2--2--2-2-2-| B|-4--4--4-4-4-2--2--2-2-2-|

G|-4--4--4-4-4-4--4--4-4-4-| G|-4--4--4-4-4-4--4--4-4-4-|

D|-4--4--4-4-4-4--4--4-4-4-| x2 D|-2--2--2-2-2-2--2--2-2-2-| x2

A|-2--2--2-2-2-2--2--2-2-2-| A|-------------------------|

E|-------------------------| E|-------------------------|

B E
e|--------------------------| e|---------------------------------------|

B|-4--4--4-4-4--2--2--2-2-2-| B|-4--4--4-4-4-2--2--2-2-2-4--4--4-4-4-2-|

G|-4--4--4-4-4--4--4--4-4-4-| G|-4--4--4-4-4-4--4--4-4-4-4--4--4-4-4-4-|

D|-4--4--4-4-4--4--4--4-4-4-| x2 D|-2--2--2-2-2-2--2--2-2-2-2--2--2-2-2-2-|

A|-2--2--2-2-2--2--2--2-2-2-| A|---------------------------------------|

E|--------------------------| E|---------------------------------------|

[Estribillo]
G#m E
I haven't been this scared
B F#
In a long time
G#m E
And I'm so unprepared
B F#
So here's your valentine
G#m E
Bouquet of clumsy words
B F#
A simple melody
G#m E
This world's an ugly place
B F#
But you're so beautiful.
Este sitio usa cookies