A veces vuelvo

Para añadir a una lista personal debes
ó

Catupecu Machu

Versión
estudio
publicado por
rafah
Tono
A-
A+
Deslizar
A -> La
Video
Acordes
	 
[Tablatura]
C# C#
e-------------x---------------x------------I

b-------------6---------------6------------I

g-------------6---------------6------------I

d-------------x---------------x------------I

a--4-4-4-4-4--4--4-4-4-4-4-4--4------------I

E-------------x---------------x------------I

[Estrofa]
C#5/G#5
Olvido todo este frió reunido de una sola vez.

De vez en cuando, cada tanto

los juegos prohibidos nos sacan ese frió.

Escurro entre tus dedos
G#5
tus canciones, tus mitos hoy.
[Pre-Estribillo]
C#5
Y es que estamos desesperados
D#5
por encontrarnos y vernos hoy
C#5 G#5
y vernos hoy que...
[Estribillo]
F#5 A#5
Mas deseo mas me alejo
G#5
soy un extraño aquí en mi cuerpo
F#5 A#5
tanta calma desespero
G#5
salgo mucho a veces vuelvo
F#5 A#5
Mas deseo mas me alejo
G#5
soy un extraño aquí en mi cuerpo
F#5 A#5
tanta calma desespero
G#5
salgo mucho a veces vuelvo
[Estrofa]
C#/G#5
Crujen los maderos de viejos andenes.

Las vías muertas nos quieren llevar

a nuevos cruces infinitos

Destinos imposibles,
F#5
noches de nunca acabar.
[Pre-Estribillo]
C#5
Y es que estamos desesperados
D#5
por encontrarnos y vernos hoy
G#5
Maaaa aaaaaas
[Estribillo]
F#5 A#5
Mas deseo mas me alejo
G#5
soy un extraño aquí en mi cuerpo
F#5 A#5
tanta calma desespero
G#5
salgo mucho a veces vuelvo
F#5 A#5
Mas deseo mas me alejo
G#5
soy un extraño aquí en mi cuerpo
F#5 A#5
tanta calma desespero
G#5
salgo mucho a veces vuelvo
G#5
Maaaaaa aaaasss
[Tablatura]
PUNTEO:

e----------------------------------------------------------

b----------------------------------------------------------

g--------------3--3-3-------3-6-6--------------------------

d----------5-6--------5-6---------6-6-6--6-----------------

a--------4---------------------------------6--6-6----------

E--3-4-6---------------------------------------------3-4-6-

e-------------------------------------------------------

b-------------------------------------------------------

g-------------------------------------------------------

d----6-6--5-5---3--3-----------------6-6-6-6-6-6-6------

a-4------------------6---------------6-6-6-6-6-6-6------

E----------------------4-4-4-4-4-4-4-4-4-4-4-4-4-4------

e----------------------------------------------------------

b---------------------------------------------------------4

g-------------------6-5----3-----------------6-5---3-6-5-6-

d------------------------6-----------------------6---------

a-----4-6---4-6------------------4-6-----4-6---------------

E-4-2----4-6-----------------4-2------4-6------------------

e-----------------------------------------------------------

b-----------------------------------------------------------

g-----------------------------------------------------------

d------------6-6--5-5--3-3--------------------6-6-6-6-6-6-6-

a------4-6--------------------6---------------6-6-6-6-6-6-6-

E-4-2---------------------------4-4-4-4-4-4-4-4-4-4-4-4-4-4-

[Estribillo]
F#5 A#5
Mas deseo mas me alejo
G#5
soy un extraño aquí en mi cuerpo
F#5 A#5
tanta calma desespero
G#5
salgo mucho a veces vuelvo
G#5
salgo mucho a veces vuelvo,
F#5 F#5
salgo mucho

a veces vuelvo.....
Este sitio usa cookies