Plateado Sobre Plateado (Huellas En El Mar)

Para añadir a una lista personal debes
ó

Charly García

Versión
estudio
publicado por
iri
Tono
A-
A+
Deslizar
A -> La
Video
Acordes
	 
[Tablatura]
e|--------------------|--------|-------|

b|--------------------|------2-|-----1-|

g|--------------------|---4----|---0---|

D|--------------------|-4------|-3-----|

A|-----0-2-3-2-0--4-0-|--------|-------|

E|-0-2----------------|--------|-------|

e|--------------------|---3---2-1-0-|

b|--------------------|-1-----------|

g|-----2-4-5-4-2--6-2-|-------------|

D|-2-4----------------|-------------|

A|-----0-2-3-2-0--4-0-|-------------|

E|-0-2----------------|-1-----------|

Bm* Bm Bb* Bbm
e|---------------|----------------|

b|---------------|----------------|

g|-6-7-----------|--4-5-----------|

D|-7-------------|--5-6-----------|

A|---------------|----------------|

E|-7---7-7-7-7-7-|-6----6-6-6-6-6-|

e|-----------------|----------------|-----------------|----------------|

b|-4-5-------------|-0-1------------|-4-5-------------|-0-1------------|

g|-5-6-------------|-0--------------|-5-6-------------|-0--------------|

D|-----------------|----------------|-----------------|----------------|

A|-0-----0-0-0-0-0-|----------------|-0-----0-0-0-0-0-|----------------|

E|-----------------|-1----1-1-1-1-1-|-----------------|-1----1-1-1-1-1-|

[Estrofa]
Asus2 Fmaj7
Ví la luna chorreando
Asus2 Fmaj7
sin parar su luz de catedral, y un barco
Asus2 Fmaj7 Bm* Bm
viejo cruzando el mar de Sudamérica a Europa
Bb* Bbm A
sobre un espejo lleno de sal.
[Puente]
[A Fmaj7] x2
[Estrofa]
Asus2 Fmaj7
Aeroplanos cortando
Asus2 Fmaj7
el celofán de un cielo tropical, abriendo
Asus2 Fmaj7 Bm* Bm
surcos van, para llevar hacia el exilio, o la vuelta
Bb* Bbm A
a los que ya no aguantaron más.
[Puente]
[A Fmaj7] x2
[Estribillo]
Bb* Bbm C#m7 A13 Dmaj7
Huellas en el mar.
Bb* Bbm C#m7 A13 Dmaj7
Sangre en nuestro hogar.
C#7 F#m7 Am7
Por qué tenemos que ir tan lejos
Bm* Bm
para estar acá,
E7sus4 E7
para estar acá.
[Tablatura]
e|--11--12--|--7-8--|

b|----------|--8-9--|

g|--8----9--|-------|

D|----------|-------|

A|----------|-------|

E|----------|-------|

[Estrofa]
Asus2 Fmaj7
Nos quedamos
Asus2 Fmaj7
por tener fe, nos fuimos por amar.
Asus2 Fmaj7 Bm* Bm
Ganamos algo y algo se fue, algunos hijos son padres
Bb* Bbm A
y algunas huellas ya son piel.
[Tablatura]
e|-----------------|----------------|-----------------|----------------|

b|-4-5-------------|-0-1------------|-4-5-------------|-0-1------------|

g|-5-6-------------|-0--------------|-5-6-------------|-0--------------|

D|-----------------|----------------|-----------------|----------------|

A|-0-----0-0-0-0-0-|----------------|-0-----0-0-0-0-0-|----------------|

E|-----------------|-1----1-1-1-1-1-|-----------------|-1----1-1-1-1-1-|

[Estribillo]
Bb* Bbm C#m7 A13 Dmaj7
Huellas en el mar.
Bb* Bbm C#m7 A13 Dmaj7
Sangre en nuestro hogar.
C#7 F#m7 Am7
Por qué tenemos que ir tan lejos
Bm* Bm
para estar acá,
E7sus4 E7
para estar acá.
[Tablatura]
e|-----------------|-0--1-2-3-|

b|-----------------|-1--------|

g|-----2-4-4/6-4-2-|----------|

D|-2-4-------------|----------|

A|-----0-2-2/4-2-0-|----------|

E|-0-2-------------|-1--------|