Strangelove

Para añadir a una lista personal debes
ó

Depeche Mode

Versión
estudio
publicado por
rafah
Tono
A-
A+
Deslizar
A -> La
Video
Acordes
Traducción
	 
[Riff]
e|-----------------------------|------------------------------|

B|-----------------------------|------------------------------|

G|-------0-------2-----0-------|-------0--------2-2---0-------|

D|----2------2-------------2---|----2------2--------------2---|

A|-----------------------------|------------------------------|

E|-----------------------------|------------------------------|

e|-----------------------------|------------------------------|

B|-----------------------------|----------------3--3----------|

G|-------0-------2-----0-------|-------0--------------0-------|

D|----2------2-------------2---|----2------2--------------2---|

A|-----------------------------|------------------------------|

E|-----------------------------|------------------------------|

[Intro]
[Estribillo]
Em Cmaj7 Asus2
Strangelove strange highs and strange lows
Em Cmaj7 Asus2
Strangelove that's how my love goes
Em Cmaj7
Strangelove
Asus2 Em
will you give it to me
Cmaj7
will you take the pain
G
I will give to you
C
again and again
Dsus2
and will you return it
[Riff]
[Estrofa]
Em
There be times when my crimes
Cmaj7 A7sus2
will seem almost unforgivable
Em
I give in to sin
Cmaj7 A7sus2
becouse you have to make this life livable
Em
But when you think I've had enough from your sea of love
Cmaj7 A7sus2
I'll take more than another riverfull
Em Dsus2 Cmaj7
Yes and I'll make it all worth-while
Asus2
I'll make your heart smile
[Estribillo]
Em Cmaj7 Asus2
Strangelove strange highs and strange lows
Em Cmaj7 Asus2
Strangelove that's how my love goes
Em Cmaj7
Strangelove
Asus2 Em
will you give it to me
Cmaj7
will you take the pain
G
I will give to you
C
again and again
Dsus2
and will you return it
[Riff]
[Estrofa]
Em
There'll be days When I'll stray
Cmaj7
I may appear to be
A7sus2
Constantly out of reach
Em
I give in to sin
Cmaj7 A7sus2
Because I like to practice what I preach
Em
I'm not trying to say

I'll have it all my way
Cmaj7
I'm always willing to learn
A7sus2
When you've got something to teach
Em Dsus2 Cmaj7
And I'll make it all worth-while
Asus2
I'll make your heart smile
[Medio]
Em
Pain will you return it
Em Cmaj7 Asus2
I'll say it again -- pain
Em
Pain will you return it
Em Cmaj7 Asus2
I won't say it again
[Estribillo]
Em
Strangelove
Cmaj7 Asus2
Strange highs and strange lows
Em
Strangelove
Cmaj7 Asus2
That's how my love goes
Em
Strangelove
Cmaj7 Em
Will you give it to me
Em
Strangelove
Cmaj7 Asus2
Strange highs and strange lows
Em
Strangelove
Cmaj7 Asus2
That's how my love goes
Em
Strangelove
Cmaj7 Em
Will you give it to me
Em
Strangelove
Cmaj7 Asus2
Strange highs and strange lows
Em
Strangelove
Cmaj7 Asus2
That's how my love goes
Em
Strangelove
Cmaj7 Em
Will you give it to me
Em
Strangelove
Cmaj7 Asus2
That's how my love goes
Em
Strangelove
Este sitio usa cookies