Romance para mis Tardes Amarillas

Para añadir a una lista personal debes
ó

Dúo Coplanacu

Versión
estudio
publicado por
iri
Tono
A-
A+
Deslizar
A -> La
Video
Acordes
	 
[Riff]
Em A Em A
e|----10-12-9--------------------|

b|-12-----------------10--12-----|

g|--------------11/12---------14-|

D|-------------------------------|x2

A|-------------------------------|

E|-------------------------------|

[Intro]
[Em - A - Em - A]x2
[Estrofa]
B7 B7
Cuando me lleve el destino
G G7
por otras huellas un día
Cmaj7 A#°
cuando ansias de andar me alejen
B7 B7 Cmaj7 Cm7/b5
de mis tardes amarillas
[Estrofa]
D G D B7
Iré cargando bagajes
Cmaj7 Bm7
de tristezas escondidas
Am A#°
y soledad de distancias
B7
hincadas en mis pupilas...!
[Puente]
D D/C
Cómo he de extrañar entonces
G/B G
calor de tierra nativa,
E7 E/G#
como he de sentir la ausencia
Am
de mis tardes amarillas,
Fmaj7 B7
con espejo de represa
Em
donde la luna se mira
Cmaj7 A#°
y tristes sauces llorones
B7 B7
que en las acequias musitan...!
[Estribillo]
Emaj7 Emaj7
Tardes que tienen misterios
Bm7 E7
de cardón en sus aristas
Amaj7 Bm/A
y vuelo de tordo negro
Amaj7 Amaj7
buscando tuscas florida.
Am7 D7
Hachas oscuras del bosque
Gmaj7 Cmaj7
en sus espaldas hundidas
F#m7 B7
y pinzas negras de jume
F#m7 B7 E
en un brillar de salinas...!
[Riff]
Em A Em A
e|----10-12-9--------------------|

b|-12-----------------10--12-----|

g|--------------11/12---------14-|

D|-------------------------------|x2

A|-------------------------------|

E|-------------------------------|

[Estrofa]
B7 B7
Tardes que tienen ojeras
G G7
azules de lejanía,
Cmaj7 A#°
cansados carros fleteros
B7 B7 Cmaj7 Cm7/b5
que en las picadas rechinan
[Estrofa]
D G D B7
Palabra de viento norte
Cmaj7 Bm7
que se amargan de jarillas
Am A#°
y silbidos de perdices
B7
que en los montes escondidas...!
[Puente]
D D/C
¡Ay! Cuando un sueño me aleje
G/B G
de mis tardes amarillas
E7 E/G#
me acompañarán los cantos
Am
tristones de las urpilas,
Fmaj7 B7
vidala de ausencia larga
Em
cantando mi despedida
Cmaj7 A#°
y soledad de quimiles
B7 B7
hecha adiós en sus espinas...!
[Estribillo]
Emaj7 Emaj7
Como he de extrañar entonces
Bm7 E7
calor de tierra y de vida
Amaj7 Bm/A
como he de sentir la ausencia
Amaj7 Amaj7
de mis tardes amarillas,
Am7 D7
mientras los parches legüeros
Gmaj7 Cmaj7
se alarguen de lejanías
F#m7 B7
y los yajnarcas me atajen
F#m7 B7 E
presintiendo mi partida...!
[Outro]
Am7 - D7 - Gmaj7 - Cmaj7 - Am7 - B7 - Em


[Tablatura]
e|----------7---------|---------5-------|-----------------|

b|---7-8-10---10-8-10-|---5-7-8---8-7-8-|-----5-7-8-7-5-7-|

g|-9------------------|-7---------------|-5-7-------------|

D|--------------------|-----------------|-----------------|

A|--------------------|-----------------|-----------------|

E|--------------------|-----------------|-----------------|

e|-7-7-7-7-7----9--------|

b|--8-8-8-8-8-----10-----|

g|---9-9-9-9-9------11---|

D|-----------------------|

A|-----------------------|

E|-----------------------|