El mundo extraño

Para añadir a una lista personal debes
ó

El mató a un Policía Motorizado

Versión
estudio
publicado por
iri
Tono
A-
A+
Deslizar
A -> La
Video
Acordes
	 
[Riff]
e|-5-----5-------|-------------|-------- ---|-------------|

b|-----7---7-5---|-------------|----------- |-------------|

G|-------------6-|-4-6-4-6/(9)-|-4-6-4-3-3--|-6-4-2-------|

D|---------------|-------------|------------|-------4/(6)-|

A|---------------|-------------|------------|-------------|

E|---------------|-------------|------------|-------------|

[Intro]
A - D x8
[Estrofa]
A D A D A D
No sé que pasa en este lugar
A D A D
Todo el mundo es más joven que yo
A D A D
Empujé buenos recuerdos pensando en nada
F#m Bm E
Parado en la puerta con vos
[Estrofa]
A D A D A D
Ya sé tu animo está por cambiar
A D A D
Te miré desde el asiento de atrás
A D A D
Tu novio es un sujeto tan agradable
F#m Bm E
Pero nunca para de hablar .
[Estribillo]
A D Bm E
Quiero estar con vos, que me quieras así
A D Bm E
Liquidado estoy, esperando hasta el fin
A D
Sé que es lo peor
Bm E A-D
Pero esta es la mejor versión de mi.
[Riff]
e|-5-----5-------|-------------|-------- ---|-------------|

b|-----7---7-5---|-------------|----------- |-------------|

G|-------------6-|-4-6-4-6/(9)-|-4-6-4-3-3-|-6-4-2-------|

D|---------------|-------------|-----------|-------4/(6)-|

A|---------------|-------------|-----------|-------------|

E|---------------|-------------|-----------|-------------|

[Estrofa]
A D A D A D
Por qué? por qué te vas sin avisar?
A D A D
Tus vecinos siempre me miran mal
A D A D
No ignores la belleza de este mundo extraño
F#m Bm E
Igual lo entendés y haces la que no sabés .
[Estribillo]
A D Bm E
Quiero estar con vos, que me quieras así
A D Bm E
Liquidado estoy, esperando hasta el fin
A D
Sé que es lo peor
Bm E A-D
Pero esta es la mejor versión de mi.
[Puente]
A - D x8
[Estribillo]
B E C#m F#
Quiero estar con vos, que me quieras así
B E C#m F#
Liquidado estoy, esperando hasta el fin
B E
Sé que es lo peor
C#m F#m B-E
Pero esta es la mejor versión de mi.
[Outro]
B - E
Este sitio usa cookies