Detrás del muro de los lamentos

Para añadir a una lista personal debes
ó

Fito Páez

Versión
estudio
publicado por
iri
Tono
A-
A+
Deslizar
A -> La
Video
Acordes
	 
[Intro]
e|---------------------------------------------|--------------------------------------|

b|---------------------------------------------|--------------------------------------|

g|---------------------------------------------|--------------------------------------|

D|---------3-2----------3-2---------3-2--------|---------3-2----------3-2-------------|

A|-0-2-3---------2------------2------------3-0-|-0-2---3-------2------------2------0--|

E|-----------------4------------4--------------|-----------------4------------4-------|

e|---------------------------------------------|---------------------------------------------|

b|---------------------------------------------|---------------------------------------------|

g|---------------------------------------------|------------------------------------2--4--5--|

D|---------3-2----------3-2---------3-2--------|---------3-2----------3-2--------------------|

A|-0-2-3---------2------------2------------3-0-|-0-2---3-------2------------2------0--2-3----|

E|-----------------4------------4--------------|-----------------4------------4--------------|

e|---------------------------------------------|------------------------------------------|

b|---------------------------------------------|------------------------------------------|

g|---------------------------------------------|------------------------------------------|

D|---------3-2----------3-2---------3-2--------|---------3-2----------3-2-----------------|

A|-0-2-3---------2------------2------------3-0-|-0-2---3-------2------------2------0-2-3--|

E|-----------------4------------4--------------|-----------------4------------4-----------|

e|---------------------------------------------|------------------------------------------|

b|---------------------------------------------|------------------------------------------|

g|---------------------------------------------|------------------------------------------|

D|---------3-2----------3-2---------3-2--------|---------3-2----------3-2-----------------|

A|-0-2-3---------2------------2------------3-0-|-0-2---3-------2------------2------0-2-3--|

E|-----------------4------------4--------------|-----------------4------------4-----------|

e|----------------------------|

b|----------------------------|

g|----------------------------|

D|--------3-2-------2-0-------|

A|-0-2-3-------2--------3-2-0-|

E|---------------4------------|

[Estrofa]
Am E7 Am E7 Am E7 Am
Gota que cae del cielo, no besa el suelo, no besa el suelo,
Am E7 Am E7 Am E7 Am
lluvia que cae del cielo, y yo la bebo, y yo la bebo
[Puente]
E7 Am Am-G-F
Ah... tu corazón,
E7 Am Am-G-F
Ah... tu corazón.
[Estrofa]
Am E7 Am E7 Am E7 Am
Desnudo mar abierto, no sopla el viento, no sopla el viento,
Am E7 Am E7 Am E7 Am
todo resulto un juego, que quita el miedo, me quita el miedo.
[Pre-Estribillo]
Bb A7/C# Dm7
Y cuando llega cura,
Ab7 G7 Cmaj7
calma el oro a la luna
F#m7b5 C/G Bb7
y yo que andaba ciego
Am9 D7 Bm7 E7 Am Em7b5 Em7b5/Bb A7
cayo del cielo y no beso el suelo
Dm7 G7 Cmaj7
y se detuvo el tiempo
Fmaj7 Bm7b5 E7
detrás del Muro de los Lamentos.
[Puente]
Amaj7 C#m7 F#m7
Todo lo que hicimos la mentira y la verdad,
Fdd9 E7
todo lo que hicimos sigue vivo en un lugar
Amaj7 C#m7 F#m7
Todo poco a poco va dejando de importar,
Fdd9 E7
todo menos esos paraísos en el mar
Am Am/G
y navegar y navegar y navegar...
F#m7b5 C/G Bb7
y yo que andaba ciego
Am9 D7 Bm7 E7 Am Em7b5 Em7b5/Bb A7
cayo del cielo y no beso el suelo
Dm7 G7 Cmaj7
y se detuvo el tiempo
Fmaj7 Bm7b5 E7 Am-G-F
detrás del Muro de los Lamentos.
[Estribillo]
E7 Am Am-G-F
Ah... tu corazón,
E7 Am Am-G-F
Ah... tu corazón,
E7 Am Am-G-F
Ah... tu corazón,
E7 Am Am-G-F
Ah... tu corazón,
[Tablatura]
e|---------------------------------------------|----------------------------------------|

b|---------------------------------------------|----------------------------------------|

g|---------------------------------------------|----------------------------------------|

D|---------3-2----------3-2---------3-2--------|---------3-2----------3-2---------------|

A|-0-2-3---------2------------2------------3-0-|-0-2---3-------2------------2-----0-2-3-|

E|-----------------4------------4--------------|-----------------4------------4---------|

e|---------------------------------------------|------------------------------------------|

b|---------------------------------------------|------------------------------------------|

g|---------------------------------------------|------------------------------------5-4-2-|

D|---------3-2----------3-2---------3-2--------|---------3-2----------3-2-----------------|

A|-0-2-3---------2------------2------------3-0-|-0-2---3-------2------------2-------------|

E|-----------------4------------4--------------|-----------------4------------4-----------|

[Estribillo]
E7 Am Am-G-F
Ah... tu corazón,
E7 Am Am-G-F
Ah... tu corazón,
Am E7 Am E7 Am E7
Ah... tu corazón,
E7 Am Am-G-F
Ah... tu corazón,
[Riff]
e|---------------------------------------------|----------------------------------------|

b|---------------------------------------------|----------------------------------------|

g|---------------------------------------------|----------------------------------------|

D|---------3-2----------3-2---------3-2--------|---------3-2----------3-2---------------|

A|-0-2-3---------2------------2------------3-0-|-0-2---3-------2------------2-----0-2-3-|

E|-----------------4------------4--------------|-----------------4------------4---------|

e|----------------------------|

b|----------------------------|

g|----------------------------|

D|--------3-2-------2-0-------|

A|-0-2-3-------2--------3-2-0-|

E|---------------4------------|