Are You What You Want To Be

Para añadir a una lista personal debes
ó

Foster the People

Versión
estudio
publicado por
rafah
Tono
A-
A+
Deslizar
A -> La
Video
Acordes
Traducción
	 
[Intro]
e|--11----9---7---6-------5---4---0---2------------------------------------|

B|--12----9---7---7-------5---5---0---3------------------------------------|

G|--11---10---8---6-------6---4---1---2------------------------------------| x4

D|-------------------------------------------------------------------------|

A|-------------------------------------------------------------------------|

E|-------------------------------------------------------------------------|

nananannannanananannananana nananannaanannaannana

[Intro]
F#m C#m D D
x2
E C#m Bm Bm
nanananannananannanananna nananannanananannaaa
[Estrofa]
F#m A Bm C#m
I woke up on Champs-Élysées to the Djembe of Ghana

Yeah, a fine lady from Belize said "You got the spirit of Fela"

Yeah, the young one dripping make-up lift her hands up to holla

Well, I gave her what I got but couldn't handle her broken heart

The right words in the hands of dissidents with the fire

Yeah, will rip apart the marrow from the bone of the liars

Yeah, well, I'm afraid of saying too much and ending a martyr

But even more so I'm afraid to face God and say I was a coward, yeah
[Pre-Estribillo]
F#m A Bm C#m
With all these things I wait for revelation

These things make me want to duck for cover

With all these things I wait for revolution
F#m A Bm silence.
These things ask the biggest question to me

And it's "are you what you want to be?"
[Estribillo]
F#m C#m D D E C#m Bm Bm
nananannanannana nananananna Well, are you what you want to be?
F#m C#m D D E C#m Bm Bm
Yeah Yeah Yeah Yeah Yeah Yeah Yeah
[Estrofa]
F#m A Bm C#m
The war machine will put out both its hands for a dollar

It's drinking at the table with the chrome hand guerrillas

And the young one dripping make-up lift her leg up to holla

Well, I told her what she's got should be protected in the arms of love

The right things in the hands of dissidents with the fire

Yeah, will rip apart the marrow from the bone of the liars

And, well, I'm afraid of saying too much and ending a martyr

But even more so I'm afraid to face God and say I was a coward, yeah

aaaaaaaaaaah aaaaaaaaaah aaaaaaah aaaaaaaaaah aaaaah aaaah aaaah
[Pre-Estribillo]
F#m A Bm C#m
With all these things I wait for revelation

These things make me want to duck for cover

With all these things I wait for revolution
F#m A Bm [silence]
These things ask the biggest question to me

And it's "are you what you want to be?"
[Estribillo]
F#m C#m D D E C#m Bm Bm
nananannanannana nananananna Well, are you what you want to be?
F#m C#m D D E C#m Bm Bm
Yeah Yeah Yeah Yeah Yeah Yeah Yeah, are you what you want to be?
F#m C#m D D E C#m Bm Bm
Yeah Yeah Yeah Yeah Yeah Yeah Yeah
[Tablatura]
e|--11----9---7---6-------5---4---0---2------------------------------------|

B|--12----9---7---7-------5---5---0---3------------------------------------|

G|--11---10---8---6-------6---4---1---2------------------------------------| x2

D|-------------------------------------------------------------------------|

A|-------------------------------------------------------------------------|

E|-------------------------------------------------------------------------|

[Estribillo]

So are you what you want to be?
F#m C#m D D E C#m Bm Bm
Yeah Yeah Yeah, are you what you want to be?, Yeah Yeah Yeah, Well, are you what you want to be?
F#m C#m D D E C#m Bm Bm
Yeah Yeah Yeah, are you what you want to be?, Yeah Yeah Yeah.
[Outro]
F#m C#m D D
x2
E C#m Bm B
mnanananannananannanananna nananannanananannaaa
Este sitio usa cookies