Reyes de la noche

Para añadir a una lista personal debes
ó

Guasones

Versión
estudio
publicado por
iri
Tono
A-
A+
Deslizar
A -> La
Video
[Capotraste en 2]
Acordes
	 
[Riff]
G C G C
e|-----------------|---------------------| --------------------|----------------------------|

b|-2/3333-2---4/5--|-2/3333-2-----4/7-5--| -2/3333-2-----4/5-5-|-3-3-2------2-2/3-2---------|

g|-0 0000---4------|-0 0000---4-2--------| -0 0000---4-2-------|--------2-4---------4-2-4-2v|

D|-----------------|---------------------| --------------------|----------------------------|

A|-----------------|---------------------| --------------------|----------------------------|

E|-----------------|---------------------|---------------------|----------------------------|

[Intro]
[G - C - G - C] x 2
[Estrofa]
G C
Fuimos mucho más que nada
G C G C G C
Fuimos la mentira, fuimos lo peor
G C G C
Fuimos los soldados a la madrugada
G C G C
Por esa ambición.
[Pre-Estribillo]
Am
Y ahora estoy en libertad,
D
Y ahora que puedo pensar
Am D
En no volver a ser ese mismo de antes.
[Estribillo]
G C G C
Y qué tristeza hay en la ciudad, amor
G C G C
Sábado soleado
G C G C
Y en el centro de la estatua del dolor
Am D
me sentí parado, me sentí parado.
[Riff]
e|-----------------|---------------------|

b|-2/3333-2---4/5--|-2/3333-2-----4/7-5--|

g|-0 0000---4------|-0 0000---4-2--------|

D|-----------------|---------------------|

A|-----------------|---------------------|

E|-----------------|---------------------|

[Estrofa]
G C
Fuimos mucho más que todos,
G C G C G C
Reyes de la noche, de esta tempestad.
G C G C
Si te vendí, si te robé, te traicioné,
G C G C
Fue por uno más.
[Pre-Estribillo]
Am
Y ahora estoy en libertad,
D
Y ahora que puedo pensar
Am D
En no volver a ser ese mismo de antes.
[Estribillo]
G C G C
Y qué tristeza hay en la ciudad, amor
G C G C
Sábado soleado
G C G C
Y en el centro de la estatua del dolor
Am D
me sentí parado, me sentí parado.
[Solo]
[G - C] x 4
[Pre-Estribillo]
Am
Fuimos perros de la noche
D
oxidados de tristeza, y...
[Estribillo]
G C9 G C9
Qué tristeza hay en la ciudad, amor
G C9 G C9
sábado soleado, sábado soleado.
G C9 G C9
Y en el centro de la estatua del dolor
Am D
me sentí parado, me sentí parado.
[Post-Estribillo]
D5 E5
Y querer lo que querés,
A5 D5
sin tener que lastimar,
E5
Recordando que tu amor
A5 D5
se robó mi dignidad,
E5
olvidémonos los dos
A5 D5
no volvamos a empezar,
Am D G
¿Para qué, para qué?
Este sitio usa cookies