Cosas Imposibles

Para añadir a una lista personal debes
ó

Gustavo Cerati

Versión
estudio
publicado por
iri
Tono
A-
A+
Deslizar
A -> La
Video
Acordes
	 
[Riff]
e|-----------------------------------------------------|

b|-----------------------------------------------------|

g|-----------------------------------------------------|

D|-22222--000--22222--000--22222--000-2-----4-----4----|x2

A|-22222--000--22222--000--22222--000-2--2----2------2-|

E|-----------------------------------------------------|

[Riff]
Riff 1
e|---------------|

b|---------------|

g|---------------|

D|----4-----4----|

A|-2----2------2-|

E|---------------|

[Estrofa]
E
Si un amor cayó del cielo
Bm (Riff 1)
No pregunto más
E
En mis sueños nunca pierdo
Bm (Riff 1)
La oportunidad
[Puente]
E E
Ah ah ah, ah ah ah
E Bm (Riff 1)
ah ah ah, ah ah
[Estrofa]
E
Aunque a veces se equivoquen
Bm (Riff 1)
no confundo más
E
voy a hacer que mis cenizas
Bm (Riff 1)
vuelvan al papel
[Puente]
E E
Ah ah ah, ah ah ah,
E Bm (Riff 1)
ah ah ah, ah ah
E E
Ah ah ah, ah ah ah,
E Bm (Riff 1)
Ah ah ah, ah ah ah,
[Estribillo]
C#m D
Siempre es hoy
C#m
Ya es parte de mi ser
D
Siempre es hoy
C#m
Lo claro entre los dos
D
Siempre es hoy
C#m
sos parte de mi ser
D
Quiero hacer, cosas imposibles, cosas imposibles.
[Tablatura]
e|---------------------------------------------|

b|---------------------------------------------|

g|---------------------------------------------|

D|-22222--000--22222--000--22222--000-222-000--|

A|-22222--000--22222--000--22222--000-222-000--|

E|-00000--000--00000--000--00000--000-000-000--|

[Tablatura]
e|-0-0-0-0-0-0-0-0-0-0-0-0-0-0-0-0-0-2222222-|

b|-0-0-0-0-0-0-0-0-0-0-0-0-0-0-0-0-0-3333333-|

g|-1-1-1-1-1-1-1-1-1-1-1-1-1-1-1-1-1-4444444-|

D|-2-2-2-2-2-2-2-2-2-2-2-2-2-2-2-2-2-4444444-|

A|-2-2-2-2-2-2-2-2-2-2-2-2-2-2-2-2-2-2222222-|

E|-0-0-0-0-0-0-0-0-0-0-0-0-0-0-0-0-0-2222222-|

Ah ah ah ah

[Estrofa]
E
Mutación del porvenir
Bm (riff 1)
es eternidad
E
No me hablen de esperanzas vagas
Bm (riff 1)
persigo realidad
[Puente]
E E
Ah ah ah, ah ah ah,
E Bm (Riff 1)
Ah ah ah, ah ah ah,
E E
Ah ah ah, ah ah ah,
E Bm (Riff 1)
Ah ah ah, ah ah ah,
[Estribillo]
C#m D
Siempre es hoy
C#m
Ya es parte de mi ser
D
Siempre es hoy
C#m
Lo claro entre los dos
D
Siempre es hoy
C#m
sos parte de mi ser
D
Quiero hacer, cosas imposibles,cosas imposibles
[Outro]
D D
ya na, ya na
C#m C#m
ya na, ya na
D D
oh oh oooh oh
C#m C#m
oh oh oooh oh
D D
cosas imposibleees
C#m C#m
quiero hacer
D D
cosas imposibles
[Outro]
E
Este sitio usa cookies