Se Fue Al Cielo

Para añadir a una lista personal debes
ó

Intoxicados

Versión
estudio
publicado por
iri
Tono
A-
A+
Deslizar
A -> La
Video
Acordes
	 
[Intro]
[Estrofa]
G C G
Cuando camino solo trato que nada me distraiga
G
seguramente estoy colgado en esas cosas que
C G
nadie te puede explicar.
[Estrofa]
G C
Armando mi propia religión mi espíritu está tratando
G C
de encontrar alguna buena razón para justificar
G
vivir en este lugar.
[Estribillo]
D D
Pero ahora no quiero hacerte pensar
D G
porque pensar tanto no es bueno
D
Eso me lo dijo un viejo que
C G
de tristeza se fue al cielo.
[Estrofa]
G C G
No voy a ir más a ningún hospital, porque ahí nunca me dicen nada
G
Creo que un veterinario va a poder me
C G
recetar algo para calmar este dolor.
[Estrofa]
G C G
Porque soy más parecido a un perro de la calle o a la planta que fumo en casa
G
que a los que anhelan sin un gramo de arte
C G
tener fama dinero y salir en televisión.
[Estribillo]
D D G
El doctor dice que mucho rockanroll, me puede hacer mal
D C G
Yo no creo nada, agarro la guitarra y empiezo a tocar.
[Solo]
G D C G G D C G
e|------------------------------------------------------------------------------------------|

b|------------------------------------------------------------------------------------------|

g|--4--4-5-4-7-2--2-4-2-5------------4--2-4-2---4--4-5-4-7-2--2-4-2-5----------4------------|

D|------------------------5--5-7-5-7----------------------------------5--5-7-5---4--4h5-4-2-|

A|------------------------------------------------------------------------------------------|

E|------------------------------------------------------------------------------------------|

G D C G G D C G
e|--------------------------------------------------------------------------------------------|

b|--8/10-8------------10--12---10-8-----------------10-8-----------10-12---10-8---------------|

g|----------9-7--9-9----------------9-7-----7--9-7-------9-7--9-9---------------9-7---7-9-7h9-|

D|--------------------------------------7h9---9-----------------------------------------------|

A|--------------------------------------------------------------------------------------------|

E|--------------------------------------------------------------------------------------------|

[Estrofa]
G C G
Solo una cosa me gusta cuando hay tanto tanto por entender
G
Son los que te alientan cuando hablas, cantas
C G
aunque no estén de acuerdo o no afines bien.
[Estrofa]
G C G
Escuche por ahí que el alcohol y el tabaco mataron mucha gente
G C G
Y chamullando con mi amiga paraguaya que me dice, Pity, añara cope guare
[Estribillo]
D D G
El doctor dice que mucho rockanroll me puede hacer mal
D C G
Yo le digo - Gracias doctor, nos vemos la semana pasada
D D C G
Pero ahora no quiero hacerte pensar porque pensar tanto no es bueno
D C G
Eso me lo dijo un viejo que de tristeza se fue al cielo.
[Solo]
G D C G
e|--------------------------------------8-7-8-7--8-12-10-8-7--10-8-7-10-8-7-14-12-10--14-12-14-15--|

b|-------------5---7-5-7-5--5-8-8-12-10------------------------------------------------------------|

g|--4--4-5-4-5---7---------------------------------------------------------------------------------|

D|-------------------------------------------------------------------------------------------------|

A|-------------------------------------------------------------------------------------------------|

E|-------------------------------------------------------------------------------------------------|

[Estrofa]
G D
Se fue al cielo,
C G D
pero pudo ir al infierno también,
G D
yo creo que fue al cielo
C - G
Este sitio usa cookies