Desnudo para siempre (o despedazado por mil partes)

Para añadir a una lista personal debes
ó

La Renga

Versión
estudio
publicado por
iri
Tono
A-
A+
Deslizar
A -> La
Video
Acordes
	 
[Intro]
B A A
e|----------------|---------------------|-------------------|

b|----------------|---------------------|-------------------|

g|----------------|---------------------|-------------------|

D|----------------|------2-0----------4-|-----2-0-----------| x2

A|-2--2-2-0-2-2-0-|-2-0-------2-0-2-----|-2-0------2-0-2--0-|

E|----------------|---------------------|-------------------|

A D
e|----------------| |----------|

b|----------------| |----------|

g|------------7-5-| |----------|

D|--------7-------|x3|-------7--| x6

A|-7--7-5---------| |---7-7-5--|

E|-5--5-----------| |---5-5----|

[Intro]
[B-A-D-A-D ]

[B-E]x4

[Estrofa]
B5 E5
La noche aspira
B5 E5
A guardarme algún misterio
B5 E5
Y como un extraño
B5 E5
salgo a caminar
B5 E5
Por las calles silenciosas
B5 E5
Del suburbio va mi alma
B5 E5
Soltaria entre el mundo
B5 E5
Y le fe de las viejas.
[Estribillo]
D5 G5 B-C-C#-D
Buenas noches me digo y me invito a beber
G5 B-C-C#-D
Estamos solos me dije y te advierto
G5 B-C-C#-D
De nada sirve mentirse a uno mismo
G5
El propio espejo y la puerta saber quien soy
D5 B5
Se abrió y me dejó desnudo para siempre.
[Puente]
G
[Estrofa]
B5 E5
Salí por el paso
B5 E5
mas metálico de la noche
B5 E5
a un viaje
B5 E5
de encuentro con mi extraño
B5 E5
y la magia cautiva de su interior
B5 E5
detonó la bomba
B5 E5
mas preciada de los sentimientos
B5 E5
al rozar con mi alma.
[Puente]
G
[Estribillo]
D5 G5 B-C-C#-D
Buenas noches me digo y me invito a beber
G5 B-C-C#-D
Estamos solos me dije y te advierto
G5 B-C-C#-D
De nada sirve mentirse a uno mismo
G5
El propio espejo y la puerta saber quien soy
D5 B5
Se abrió y me dejó desnudo para siempre.
[Puente]
G
[Estribillo]
D5 G5 B-C-C#-D
Buenas noches me digo y me invito a beber
G5 B-C-C#-D
Estamos solos me dije y te advierto
G5 B-C-C#-D
De nada sirve mentirse a uno mismo
G5
El propio espejo y la puerta saber quien soy
D5 B5
Se abrió y me dejó desnudo para siempre.
[Riff]
B A A
e|----------------|---------------------|-------------------|

b|----------------|---------------------|-------------------|

g|----------------|---------------------|-------------------|

D|----------------|------2-0----------4-|-----2-0-----------| x2

A|-2--2-2-0-2-2-0-|-2-0-------2-0-2-----|-2-0------2-0-2--0-|

E|----------------|---------------------|-------------------|

A D
e|----------------| |----------|

b|----------------| |----------|

g|------------7-5-| |----------|

D|--------7-------|x3|-------7--| x6

A|-7--7-5---------| |---7-7-5--|

E|-5--5-----------| |---5-5----|