Rock And Roll Is Dead

Para añadir a una lista personal debes
ó

Lenny Kravitz

Versión
estudio
publicado por
fabricio
Tono
A-
A+
Deslizar
A -> La
Video
Acordes
Traducción
	 
[Intro]
E|---------------------------------------------------------|

B|--X-X-X-----------------------------------X/17-17-17-17--|

G|--X-X-X-----------------------------------X/17-17-17-17--|

D|--X-X-X-----------------------------------X/17-17-17-17--|

A|--X-X-X-------------3^5p6p5^3-------------X/17-17-17-17--|

E|---------17\--3-4-5----------5^3--3-4-5------------------|

[Estrofa]
D
You think you¹re on top of the world but it¹s really over
[Tablatura]
E|----------------------------------------|

B|----------------------------------------|

G|-------------------------------------5--|

D|-------------------------------------5--|

A|---------------3^5p6p5^3-------------3--|

E|---3-4-5------------------5^3--3-4-5----|

[Estrofa]
D
Runnin round with diamond rings and coke spoons that are overflowin
[Intro]
E|--------------------------------------------------------|

B|--X-X-X----------------------------------X/17-17-17-17--|

G|--X-X-X----------------------------------X/17-17-17-17--|

D|--X-X-X----------------3-----------------X/17-17-17-17--|

A|--X-X-X-------------3^5--5^3-------------X/17-17-17-17--|

E|---------17\--3-4-5----------5^3--3-4-5-----------------|

[Estrofa]
E
Rock and Roll is dead
[Intro]
E|-----------------------------------------|

B|--X-X-X----------------------------------|

G|--X-X-X----------------------------------|

D|--X-X-X----------------3-----------------|

A|--X-X-X-------------3^5--5^3-------------|

E|---------17\--3-4-5----------5^3--3-4-5--|

[Estribillo]
E
All the money in the world can¹t buy you from the place you re going to
[Intro]
E|---------------------------------------------------------|

B|--X-X-X-----------------------------------X/17-17-17-17--|

G|--X-X-X-----------------------------------X/17-17-17-17--|

D|--X-X-X-----------------------------------X/17-17-17-17--|

A|--X-X-X-------------3^5p6p5^3-------------X/17-17-17-17--|

E|---------17\--3-4-5----------5^3--3-4-5------------------|

[Estribillo]
E
Ooh Yeah, Rock and Roll is dead
[Tablatura]
E|---------------------------------------------------------|

B|--X-X-X-----------------------------------X/17-17-17-17--|

G|--X-X-X-----------------------------------X/17-17-17-17--|

D|--X-X-X-----------------------------------X/17-17-17-17--|

A|--X-X-X-------------3^5p6p5^3-------------X/17-17-17-17--|

E|---------17\--3-4-5-----------5^3--3-4-5-----------------|

[Estribillo]
E
Ooh Yeah, Rock and Roll is dead
[Tablatura]
E|---------------------------------------------------------|

B|--X-X-X-----------------------------------X/17-17-17-17--|

G|--X-X-X-----------------------------------X/17-17-17-17--|

D|--X-X-X-----------------------------------X/17-17-17-17--|

A|--X-X-X-------------3^5p6p5^3-------------X/17-17-17-17--|

E|---------17\--3-4-5----------5^3--3-4-5------------------|

[Estribillo]
E
Ooh Yeah, Rock and Roll is dead
[Intro]
E|---------------------------------------------------------|

B|--X-X-X-----------------------------------X/17-17-17-17--|

G|--X-X-X-----------------------------------X/17-17-17-17--|

D|--X-X-X-----------------------------------X/17-17-17-17--|

A|--X-X-X-------------3^5p6p5^3-------------X/17-17-17-17--|

E|---------17\--3-4-5----------5^3--3-4-5------------------|

[Estribillo]
D
You can¹t even sing or play an instrument you just scream instead, ooh yeah!
[Tablatura]
E|----------------------------------------|

B|----------------------------------------|

G|-------------------------------------5--|

D|-------------------------------------5--|

A|---------------3^5p6p5^3-------------3--|

E|---3-4-5------------------5^3--3-4-5----|

[Estribillo]
D
You¹re living for an image so you¹ve got 500 women in your bed
[Intro]
E|---------------------------------------------------------|

B|--X-X-X-----------------------------------X/17-17-17-17--|

G|--X-X-X-----------------------------------X/17-17-17-17--|

D|--X-X-X-----------------------------------X/17-17-17-17--|

A|--X-X-X-------------3^5p6p5^3-------------X/17-17-17-17--|

E|---------17\--3-4-5----------5^3--3-4-5------------------|

[Estribillo]
E
Ooh Yeah, Rock and Roll is dead
[Tablatura]
E|----------------------------------------|

B|----------------------------------------|

G|-------------------------------------5--|

D|-------------------------------------5--|

A|---------------3^5p6p5^3-------------3--|

E|---3-4-5------------------5^3--3-4-5----|

[Estribillo]
E
But it¹s real hard to be yourself when you¹re living with those demons in your
[Intro]
E|---------------------------------------------------------|

B|--X-X-X-----------------------------------X/17-17-17-17--|

G|--X-X-X-----------------------------------X/17-17-17-17--|

D|--X-X-X-----------------------------------X/17-17-17-17--|

A|--X-X-X-------------3^5p6p5^3-------------X/17-17-17-17--|

E|---------17\--3-4-5----------5^3--3-4-5------------------|

[Estribillo]
E
Ooh Yeah, Rock and Roll is dead
[Intro]
E|---------------------------------------------------------|

B|--X-X-X-----------------------------------X/17-17-17-17--|

G|--X-X-X-----------------------------------X/17-17-17-17--|

D|--X-X-X-----------------------------------X/17-17-17-17--|

A|--X-X-X-------------3^5p6p5^3-------------X/17-17-17-17--|

E|---------17\--3-4-5----------5^3--3-4-5------------------|

[Estribillo]
E
Ooh Yeah, Rock and Roll is dead
[Intro]
E|---------------------------------------------------------|

B|--X-X-X-----------------------------------X/17-17-17-17--|

G|--X-X-X-----------------------------------X/17-17-17-17--|

D|--X-X-X-----------------------------------X/17-17-17-17--|

A|--X-X-X-------------3^5p6p5^3-------------X/17-17-17-17--|

E|---------17\--3-4-5----------5^3--3-4-5------------------|

[Estribillo]
E
Ooh Yeah, Rock and Roll is dead
[Intro]
E|---------------------------------------------------------|

B|--X-X-X-----------------------------------X/17-17-17-17--|

G|--X-X-X-----------------------------------X/17-17-17-17--|

D|--X-X-X-----------------------------------X/17-17-17-17--|

A|--X-X-X-------------3^5p6p5^3-------------X/17-17-17-17--|

E|---------17\--3-4-5----------5^3--3-4-5------------------|

[Estribillo]
E
Ooh Yeah, Rock and Roll is dead
[Intro]
E|---------------------------------------------------------|

B|--X-X-X-----------------------------------X/17-17-17-17--|

G|--X-X-X-----------------------------------X/17-17-17-17--|

D|--X-X-X-----------------------------------X/17-17-17-17--|

A|--X-X-X-------------3^5p6p5^3-------------X/17-17-17-17--|

E|---------17\--3-4-5----------5^3--3-4-5------------------|

[Estribillo]
E
Ooh Yeah, Rock and Roll is dead
[Intro]
E|---------------------------------------------------------|

B|--X-X-X-----------------------------------X/17-17-17-17--|

G|--X-X-X-----------------------------------X/17-17-17-17--|

D|--X-X-X-----------------------------------X/17-17-17-17--|

A|--X-X-X-------------3^5p6p5^3-------------X/17-17-17-17--|

E|---------17\--3-4-5----------5^3--3-4-5------------------|

Este sitio usa cookies