El enemigo

Para añadir a una lista personal debes
ó

Luis Alberto Spinetta

Versión
estudio
publicado por
iri
Tono
A-
A+
Deslizar
A -> La
Video
Acordes
	 
[Intro]
Am7/9 E7(#9) E6(#9) E6(b9)-E6(#9)


Am7/9 Dm7/9 G#m6(#5) G#m6(b5)-G#m6(#5)

[Estrofa]
Cmaj/G
Con una sola vez
Am7/9 (G)
En la que el viento diga tu nombre
Fmaj7/13 (Fill 1)
Mi corazón, latirá muy fuerte
Cmaj7/G
Hasta llegar.
[Tablatura]
Fill 1
e|-0----------------------------0--|

b|-5--3-1-0---------------------0--|

g|----------2--0-0h2p0----------0--|

D|---------------------2--0--2--2--|

A|------------------------------3--|

E|------------------------------3--|

[Estrofa]
Cmaj/G
Mientras se detenga el tiempo
Am7/9 (G)
Entre cuerpos como arena en las manos
Fmaj7/13 (Fill 1)
La lejanía dice adiós
Cmaj7/G
Hasta estallar.
[Estribillo]
Csus2/G# G#maj7
Vue - lve
Gm7 Fmaj7 Cmaj7/G C9
Y siembra en su vientre una plegaria
Csus2/G# G#maj7
Su - be
Gm7 Fm7 Em7 (Fill 2)
y vuela tu mirada hacia el mar
[Tablatura]
Fill 2:

e|-3--1--0-|

b|-3--1--0-|

g|---------|

D|---------|

A|---------|

E|---------|

[Post-Estribillo]
Am7/9 Dm7/9
Y es que nada, nada detendrá mi amor
Cadd11/G Fmaj7/9/13
Y hay que impedir que juegues para el enemigo.
[Tablatura]
Fill 1
e|-0----------------------------0--|

b|-5--3-1-0---------------------0--|

g|----------2--0-0h2p0----------0--|

D|---------------------2--0--2--2--|

A|------------------------------3--|

E|------------------------------3--|

[Puente]
Am7/9 E7(#9) E6(#9) E6(b9)-E6(#9)

Am7/9 Dm7/9 G#m6(#5) G#m6(b5)-G#m6(#5)

[Estribillo]
Cmaj/G
Puedo hasta tocar el cielo
Am7/9 (G)
En el que flotan todas almas perdidas
Fmaj7/13 (Fill 1)
Mi corazón latirá muy fuerte
Cmaj7/G
Hasta llegar.
[Estrofa]
Cmaj/G Si un espejo falso ves
Am7/9 (G)
Que no responda tus mismas lágrimas
Fmaj7/13 (Fill 1)
La lejanía dirá adiós
Cmaj7/G
hasta estallar.
[Estribillo]
Csus2/G# G#maj7
Oh! regresa
Gm7 Fmaj7 Cmaj7/G C9
Y hunde tu cuerpo en esta piedra
Csus2/G# G#maj7
Su be
Gm7 Fm7 Em7 (Fill 2)
y vuela tu mirada hacia el mar
[Tablatura]
Fill 2
e|-3--1--0-|

b|-3--1--0-|

g|---------|

D|---------|

A|---------|

E|---------|

[Estribillo]
Am7/9 Dm7/9
Y es que no hay otra oportunidad
Cadd11/G Fmaj7/9/13
Porqué solo es esto todo lo que tenias para dar.
[Solo]
Cmaj/G - Am7/9 (G) - Fmaj7/13 (Fill 1) - Cmaj7/G


Csus2/G# G#maj7

Gm7 Fmaj7 Cmaj7/G C9

Csus2/G# G#maj7

Gm7 Fm7 Em7 (Fill 2)

Cadd11/G Fmaj7/9/13
Y hay que impedir que juegues para el enemigo.
[Estrofa]
Cmaj/G
Madre de la vida
Am7/9 (G)
Por favor ilumina a la gente
Fmaj7/13 (Fill 1)
O todo verdor y creación,
Cmaj7/G
y tu amor se perderán.
[Estrofa]
Cmaj/G
Quieren imitar al sol
Am7/9 (G)
Que se escapa en su espectro dorado
Fmaj7/13 (Fill 1)
Y la lejanía dice adiós
Cmaj7/G
hasta estallar.
[Estribillo]
Csus2/G# G#maj7
Vue - lve
Gm7 Fmaj7 Cmaj7/G C9
Y siembra en su vientre una plegaria
Csus2/G# G#maj7
Su - be
Gm7 Fm7 Em7 (Fill 2)
y vuela tu mirada hacia el mar
[Tablatura]
Fill 2:
e|-3--1--0-|

b|-3--1--0-|

g|---------|

D|---------|

A|---------|

E|---------|

[Estribillo]
Am7/9 Dm7/9
Y es que nada, nada detendrá mi amor
Cadd11/G Fmaj7/9/13
Y hay que impedir que juegues para el enemigo.
[Tablatura]
Fill 1
e|-0----------------------------0--|

b|-5--3-1-0---------------------0--|

g|----------2--0-0h2p0----------0--|

D|---------------------2--0--2--2--|

A|------------------------------3--|

E|------------------------------3--|

Este sitio usa cookies