Héroes anónimos

Para añadir a una lista personal debes
ó

Metrópoli

Versión
estudio
publicado por
rafah
Tono
A-
A+
Deslizar
A -> La
Video
Acordes
	 
[Intro]
C
[Estrofa]
C
Estamos atrapados en la misma red
G F
Viajando por un laberinto
C
Estamos sosteniendo una pared
G F
Por favor no la dejes caer.
[Estrofa]
C
Ceferino no me escucha mas
G F
Adonde fue la Madre María
A# C
Aunque no creo en la casualidad
G
Sueño con loterías.
[Estribillo]
C
Todos somos Héroes Anónimos
F G G# A#
Guerreros en este lugar
C
Peleando con el corazón
F G G# A#
Combatiendo tanta soledad
G# A# G# A# C
[Solo]
(C G F) x2
[Solo]
--------------------------------------------

--------------------------------------------

--------------------------------------------

1-1-1-1-1-1-2-1-4---------------------------

---------------------2-2-2-4-4-2-4/5-4-2- --

--------------------------------------------

---------------------------------------------------------------------------------------------------

---------------------------------------------------------------------------------------------------

---------------------------------------------------------------------------------------------------

---3/13-13-13-13-13-13-13-14-13-6------------------------------------------------------------------

-------------------------------------------------14-14-14-16-16-14-16/17-16-14---------------------

---------------------------------------------------------------------------------------

[Estrofa]
C#
Me bombardean otra vez
G# F#
Vuelvo a construir mi casa
B C#
Con una fuerza del mas allá
G#
Encuentro en tu mirada.
[Estribillo]
C#
Todos somos Héroes Anónimos
F# G# A B
Guerreros en este lugar
C#
Peleando con el corazón
F# G# A B
Combatiendo tanta soledad
F# G# A B
Combatiendo tanta soledad
C# F# G# A B
Heroes Anonimos
Este sitio usa cookies