Beat It

+ nueva lista

Michael Jackson

Versión
estudio
publicado por
iri
Tono
A-
A+
Deslizar
A -> La
Video
[Afinación: Eb Ab Db Gb Bb Eb (-1/2 Tono)]
Acordes
Traducción
	 
[Riff]
e|---|-----------------|-----------------| -----------------|-------------|

b|---|-----------------|-----------------| -----------------|-------------|

g|---|-----------------|-----------------| -----------------|-------------|

D|---|--------5-2----4-|---2-0---0-------| --------5-2----4-|---2-0-------|

A|---|------2----------|-----------------| ------2----------|-------------|

E|-0-|(0)-3------------|---------------0-|(0)-3------------|-------------|

[Estrofa]
Em D
They told him, Don't you ever come around here
Em D
Don't wanna see your face, You better disappear,
C D
The fires in their eyes and their words are really clear
Em D
So beat it, Just beat it
[Estrofa]
Em D
You better run, You better do what you can
Em D
Don't wanna see no blood, Don't be a macho man
C D
You wanna be tough, Better do what you can
Em D
So beat it, But you wanna be bad
[Estribillo]
Em D
Just beat (beat it), Beat it (Beat it)
Em D
No one wants to be defeated
Em D
Showin' how funky and strong is your fight
Em D
It doesn't matter who's wrong or right
Em D
Just beat it, Just beat it
Em D
Just beat it, Just beat it.
[Estrofa]
Em D
They're out to get you, Better leave while you can
Em D
Don't wanna be a boy, You wanna be a man
C D
You wanna stay alive, Better do what you can
Em D
So beat it, Just beat it.
[Estrofa]
Em D
You have to show them that you're really not scared
Em D
You're playin' with your life, This ain't no truth or dare
C D
They'll kick you, then they beat you, then they'll tell you its fair
Em D
So beat it, But you wanna be bad
[Estribillo]
Em D
Just beat (beat it), Beat it (Beat it)
Em D
No one wants to be defeated
Em D
Showin' how funky and strong is your fight
Em D
It doesn't matter who's wrong or right
Em D
Just beat (beat it), Beat it (Beat it)
Em D
No one wants to be defeated
Em D
Showin' how funky and strong is your fight
Em D
It doesn't matter who's wrong or right
Em D
Just beat it, beat it, beat it, beat it
[Puente]
Em
Beat it, beat it, beat it, beat it
Em
Beat it, beat it, beat it....beat it, beat it
[Riff]
e|-----------------------------------|-----------------------|

b|-----------------------------------|-----------------------|

g|--x---x-x-12--x-x-12---9-------x-x-|-11---x-x-11---7-------|

D|--x---x-x-12--x-x-12---9-------x-x-|-12---x-x-12---7-------| x4

A|-----------------------------------|-----------------------|

E|-----------------------------------|-----------------------|

[Solo]
E - D
[Estribillo]
Em D
Beat it (beat it), Beat it (Beat it)
Em D
No one wants to be defeated, beat it
Em D
Showin' how funky and strong is your fight
Em D
It doesn't matter who's wrong or right
Em D
Just beat (beat it), Beat it (Beat it)
Em D
No one wants to be defeated
Em D
Showin' how funky and strong is your fight
Em D
It doesn't matter who's wrong or right
Em D
Just beat it, Just beat it
Em D
No one wants to be defeated
Em D
Showin' how funky and strong is your fight
Em D
It doesn't matter who's wrong or right
Em D
Just beat it (beat it), beat it (beat it)
Em D
No one wants to be defeated
Em D
Showin' how funky and strong is your fight
Em D
It doesn't matter who's wrong or right
Em D
Just beat it (beat it), beat it (beat it)
Em D
No one wants to be defeated
[Outro]
Em D
Showin' how funky and strong is your fight
Em D
It doesn't matter who's wrong or right
Este sitio usa cookies