Que No Te Haga Bobo Jacobo

Para añadir a una lista personal debes
ó

Molotov

Versión
estudio
publicado por
iri
Tono
A-
A+
Deslizar
A -> La
Video
Acordes
	 
[Tablatura]
e|--------------------------------------------------------------------------------|

b|--------------------------------------------------------------------------------|

g|--------------------------------------------------------------------------------|

D|--------------------------------------------------------------------------------|

A|-5h7------------------------------------------5h7-------------------------------|

E|-----0-12\--0-3b-0-12\--0-0-0-12\--0-3-4-5-3------0-12\--0-3b-0-12\--0-0-0-12\--|

e|--------------------------------------------------------------------------------|

b|--------------------------------------------------------------------------------|

g|--------------------------------------------------------------------------------|

D|--------------------------------------------------------------------------------|

A|------------5h7------------------------------------------5h7--------------------|

E|-0-5-4-3-5------0-12\--0-3b-0-/21\--0-0-0-/21--0-3-4-5-3-----0-21\--0-3b-0-21\--|

e|--------------------------------------------------------------------------------|

b|--------------------------------------------------------------------------------|

g|--------------------------------------------------------------------------------|

D|--------------------------------------------------------------------------------|

A|--------------------------------------------------------------------------------|

E|-0-0-0-/21--0-5-4-3-------------------------------------------------------------|

e|-----------------------------------------------------------------------|--------|

b|-----------------------------------------------------------------------|--------|

g|-----------------------------------------------------------------------|--------|

D|-----------------------------------------------------------------------|--------|

A|-5h7--------------------------------5h7--------------------------------|--------|

E|-----0---0-3b-0---0-0-0--0-3-4-5-0------0---0-3b-0---0-0-0---0-5-4-3---|--------|

e|-----------------------------------------------------------------------|--------|

b|-----------------------------------------------------------------------|--------|

g|-----------------------------------------------------------------------|--------|

D|-----------------------------------------------------------------------|--------|

A|-5h7--------------------------------5h7--------------------------------|--------|

E|-----0---0-3b-0---0-0-0--0-3-4-5-0------0---0-3b-0---0-0-0---0-5-4-3---|--------|

e|----------------/21---------/21----------|--------------------------------------|

b|-----------------------------------------|--------------------------------------|

g|-----------------------------------------|--------------------------------------|

D|---------------------------------------3-|--------------------------------------|

A|-------------------------------------2---|--------------------------------------|

E|-0-0-3b--0-1-0-------0-1-0-------0-1-----|--------------------------------------|

e|----------------/21---------/21----------|--------------------------------------|

b|-----------------------------------------|--------------------------------------|

g|-----------------------------------------|--------------------------------------|

D|---------------------------------------3-|--------------------------------------|

A|-------------------------------------2---|--------------------------------------|

E|-0-0-3b--0-1-0-------0-1-0-------0-1-----|--------------------------------------|

e|-------------------------------------------------------|------------------------|

b|-------------------------------------------------------|------------------------|

g|-------------------------------------------------------|------------------------|

D|-------------5-----------------------------------------|------------------------|

A|---7p5-7p5-7---7p5-7p5-7---------------------------5-7-|------------------------|

E|-0-----------------------5--0-5p3-5p3--5-3--5-6--7-----|------------------------|

e|--------------------------------------------------------------------------------|

B|--------------------------------------------------------------------------------|

G|--------------------------------------------------------------------------------|

D|--------------------------------------------------------------------------------|

A|-5h7---/13--------/13-------/13-------/13--5h7--/13------/13-----/13------/13---|

E|-----0-----0-3b-0-----0-0-0-----0-3-4----------0---0-3b-0---0-0-0---0-5-4-------|

e|--------------------------------------------------------------------------------|

b|--------------------------------------------------------------------------------|

g|--------------------------------------------------------------------------------|

D|--------------------------------------------------------------------------------|

A|-5h7--------------------------------5h7-----------------------------------------|

E|-----0---0-3b-0---0-0-0--0-3-4-5-0------0---0-3b-0---0-0-0---0-5-4-3------------|

e|----------------/21---------/21----------|--------------------------------------|

b|-----------------------------------------|--------------------------------------|

g|-----------------------------------------|--------------------------------------|

D|---------------------------------------3-|--------------------------------------|

A|-------------------------------------2---|--------------------------------------|

E|-0-0-3b--0-1-0-------0-1-0-------0-1-----|--------------------------------------|

e|----------------/21---------/21----------|--------------------------------------|

b|-----------------------------------------|--------------------------------------|

g|-----------------------------------------|--------------------------------------|

D|---------------------------------------3-|--------------------------------------|

A|-------------------------------------2---|--------------------------------------|

E|-0-0-3b--0-1-0-------0-1-0-------0-1-----|--------------------------------------|

e|----------------------------------|---------------------------------------------|

b|----------------------------------|---------------------------------------------|

g|----------------------------------|---------------------------------------------|

D|-------------5---------7----------|------------5-------7------------------------|

A|---7p5-7p5-7----7-5--7----7-5-7...|----7p5-7p5---7-5-7--------------------------|

E|-0--------------------------------|--0------------------------------------------|

e|----------------------------------|---------------------------------------------|

b|----------------------------------|---------------------------------------------|

g|----------------------------------|---------------------------------------------|

D|-------------5---------7----------|------------5-------7------------------------|

A|---7p5-7p5-7----7-5--7----7-5-7...|----7p5-7p5---7-5-7--------------------------|

E|-0--------------------------------|--0------------------------------------------|

e|----------------------------------|---------------------------------------------|

b|----------------------------------|---------------------------------------------|

g|----------------------------------|---------------------------------------------|

D|-------------5---------7----------|------------5-------7------------------------|

A|---7p5-7p5-7----7-5--7----7-5-7...|----7p5-7p5---7-5-7--------------------------|

E|-0--------------------------------|--0------------------------------------------|

Bass
[Tablatura]
e|----------------/21---------/21----------|--------------------------------------|

b|-----------------------------------------|--------------------------------------|

g|-----------------------------------------|--------------------------------------|

D|---------------------------------------3-|--------------------------------------|

A|-------------------------------------2---|--------------------------------------|

E|-0-0-3b--0-1-0-------0-1-0-------0-1-----|--------------------------------------|

e|----------------/21---------/21----------|--------------------------------------|

b|-----------------------------------------|--------------------------------------|

g|-----------------------------------------|--------------------------------------|

D|---------------------------------------3-|--------------------------------------|

A|-------------------------------------2---|--------------------------------------|

E|-0-0-3b--0-1-0-------0-1-0-------0-1-----|--------------------------------------|

e|----------------------------------|---------------------------------------------|

b|----------------------------------|---------------------------------------------|

g|----------------------------------|---------------------------------------------|

D|-------------5---------7----------|------------5-------7------------------------|

A|---7p5-7p5-7----7-5--7----7-5-7...|----7p5-7p5---7-5-7--------------------------|

E|-0--------------------------------|--0------------------------------------------|

e|----------------------------------|---------------------------------------------|

b|----------------------------------|---------------------------------------------|

g|----------------------------------|---------------------------------------------|

D|-------------5---------7----------|------------5-------7------------------------|

A|---7p5-7p5-7----7-5--7----7-5-7...|----7p5-7p5---7-5-7--------------------------|

E|-0--------------------------------|--0------------------------------------------|

e|----------------------------------|---------------------------------------------|

b|----------------------------------|---------------------------------------------|

g|----------------------------------|---------------------------------------------|

D|-------------5---------7----------|------------5-------7------------------------|

A|---7p5-7p5-7----7-5--7----7-5-7...|----7p5-7p5---7-5-7--------------------------|

E|-0--------------------------------|--0------------------------------------------|

e|--------------------------------------------------------------------/21---------|

b|--------------------------------------------------------------------------------|

g|--------------------------------------------------------------------------------|

D|---------------------------------------3-----------------5h7-----------------3--|

A|-------------------------------------2--------------------------------------2---|

E|-0-0-3b--0-1-0-------0-1-0-------0-1------0-0-3b--0-1-0-------0-1-0------0-1----|

e|--------------------------------------------------------------------------------|

b|---------------------------------------------------------------10br8------------|

g|---------------------------------------------------------------------9----------|

D|-------------5---------7----------------------5-------7-------------------------|

A|---7p5-7p5-7----7-5--7----7-5-7-------7p5-7p5---7-5-7---7-5-7-------------------|

E|-0----------------------------------0-------------------------------------------|

e|--------------------------------------------------------------------------------|

b|--------------------------------------------------------------------------------|

g|---------------------------------------------------------------------------9----|

D|-------------5---------7-------------------5-------7-----------------------9----|

A|---7p5-7p5-7----7-5--7----7-5-7----7p5-7p5---7-5-7---7-5-7-5-5-5-5---3...--7----|

E|-0-------------------------------0-------------------------3-3-3-3-0-1...-------|

Este sitio usa cookies