Bajo la sombra de un árbol

Para añadir a una lista personal debes
ó

Peteco Carabajal

Versión
estudio
publicado por
iri
Tono
A-
A+
Deslizar
A -> La
Video
Acordes
	 
[Riff]
E7 A

e|------9-12-|-10-----------10-|-9-----------9-|

b|---10------|----12-----12----|---10-----10---|

g|-9---------|-------9-9-------|------9-9------|

D|-----------|-----------------|---------------|

A|-----------|-----------------|---------------|

E|-----------|-----------------|---------------|

E7 A

e|--------------|--------------|

b|-12-9-----12--|-10-----------|

g|------9-9-----|--------------|

D|--------------|--------------|

A|--------------|--------------|

E|--------------|--------------| x2

[Estrofa]
A
Bajo la sombra de un árbol
E7 A
me hallaba casi dormido
F#m
que hermosa estaba la tarde
F#m
los árboles eran trinos
E7
volaron mis sentimientos
A
colgados en un suspiro.
[Riff]
E7 A

e|------9-12-|-10-----------10-|-9-----------9-|

b|---10------|----12-----12----|---10-----10---|

g|-9---------|-------9-9-------|------9-9------|

D|-----------|-----------------|---------------|

A|-----------|-----------------|---------------|

E|-----------|-----------------|---------------|

E7 A

e|--------------|--------------|

b|-12-9-----12--|-10-----------|

g|------9-9-----|--------------|

D|--------------|--------------|

A|--------------|--------------|

E|--------------|--------------| x2

[Estrofa]
A
De pronto llegó una brisa
E7 A
que olía a viejos recuerdos
F#m
estaba todo presente
F#m
todo lo que yo más quiero
E7
como si el tiempo se abriese
A
dejando ver sus misterios.
[Riff]
E7 A

e|------9-12-|-10-----------10-|-9-----------9-|

b|---10------|----12-----12----|---10-----10---|

g|-9---------|-------9-9-------|------9-9------|

D|-----------|-----------------|---------------|

A|-----------|-----------------|---------------|

E|-----------|-----------------|---------------|

E7 A

e|--------------|--------------|

b|-12-9-----12--|-10-----------|

g|------9-9-----|--------------|

D|--------------|--------------|

A|--------------|--------------|

E|--------------|--------------| x2

[Estrofa]
A
No hay quien cante en esta tierra
E7 A
como los pájaros cantan
F#m
son libres de darse al viento
F#m
son libres de la palabra
E7
ser uno más en el aire
A
es lo que al hombre le espanta.
[Estribillo]
A
De algún lugar de la tarde
E7 A
salió una voz que me dijo
F#m
es bueno andar por el mundo
F#m
amar y sufrir olvidos
E7
sabiendo que aquí la vida
A
y la muerte tienen su sitio.
[Riff]
E7 A

e|------9-12-|-10-----------10-|-9-----------9-|

b|---10------|----12-----12----|---10-----10---|

g|-9---------|-------9-9-------|------9-9------|

D|-----------|-----------------|---------------|

A|-----------|-----------------|---------------|

E|-----------|-----------------|---------------|

E7 A

e|--------------|--------------|

b|-12-9-----12--|-10-----------|

g|------9-9-----|--------------|

D|--------------|--------------|

A|--------------|--------------|

E|--------------|--------------| x2

[Estrofa]
A
Del cielo colgó una nube
E7 A
pintada de oro encendido
F#m
entonces los pensamientos
F#m
cayeron encima mío
E7
cuando me volví hacia el cielo
A
las nubes ya se habían ido.
[Riff]
E7 A

e|------9-12-|-10-----------10-|-9-----------9-|

b|---10------|----12-----12----|---10-----10---|

g|-9---------|-------9-9-------|------9-9------|

D|-----------|-----------------|---------------|

A|-----------|-----------------|---------------|

E|-----------|-----------------|---------------|

E7 A

e|--------------|--------------|

b|-12-9-----12--|-10-----------|

g|------9-9-----|--------------|

D|--------------|--------------|

A|--------------|--------------|

E|--------------|--------------| x2

[Estrofa]
A
No pierdas jamás la vista
E7 A
los tonos de la inocencia
F#m
y al tiempo de los colores
F#m
volvé cuantas veces puedas
E7
y a tu corazón bórdalo
A
con hilos de transparencia.
[Riff]
E7 A

e|------9-12-|-10-----------10-|-9-----------9-|

b|---10------|----12-----12----|---10-----10---|

g|-9---------|-------9-9-------|------9-9------|

D|-----------|-----------------|---------------|

A|-----------|-----------------|---------------|

E|-----------|-----------------|---------------|

E7 A

e|--------------|--------------|

b|-12-9-----12--|-10-----------|

g|------9-9-----|--------------|

D|--------------|--------------|

A|--------------|--------------|

E|--------------|--------------| x2

[Estrofa]
A
No hay quien cante en esta tierra
E7 A
como los pájaros cantan
F#m
son libres de darse al viento
F#m
son libres de la palabra
E7
ser uno más en el aire
A
es lo que al hombre le espanta.
[Estribillo]
A
De algún lugar de la tarde
E7 A
salió una voz que me dijo
F#m
es bueno andar por el mundo
F#m
amar y sufrir olvidos
E7
sabiendo que aquí la vida
A
y la muerte tienen su sitio.
Este sitio usa cookies