Volveré a Salavina

Para añadir a una lista personal debes
ó

Raly Barrionuevo

Versión
estudio
publicado por
iri
Tono
A-
A+
Deslizar
A -> La
Video
Acordes
	 
[Tablatura]
e|-5-3-2---|---------|---------2-3-|-5-3-2---|

b|-------5-|-5-3-2---|---2-4-5-----|-------5-|

g|---------|-------4-|-4-----------|---------|

D|---------|---------|-------------|---------|

A|---------|---------|-------------|---------|

E|---------|---------|-------------|---------|

B7 Em A G B7 Em
e|-5-3-2---|---------|---------2-3-|-5-3-2---|

b|-------5-|-5-3-2---|---2-4-5-----|-------5-|

g|---------|-------4-|-4-----------|---------|

D|---------|---------|-------------|---------|

A|---------|---------|-------------|---------|

E|---------|---------|-------------|---------|

[Estrofa]
Em C
volveré a Salavina
D7 G
buscando la chacarera
Am
el Cachilo y el Soco
B7 Em
tocaban a las estrellas.
[Riff]
B7 Em A G B7 Em
e|-5-3-2---|---------|---------2-3-|-5-3-2---|

b|-------5-|-5-3-2---|---2-4-5-----|-------5-|

g|---------|-------4-|-4-----------|---------|

D|---------|---------|-------------|---------|

A|---------|---------|-------------|---------|

E|---------|---------|-------------|---------|

[Estrofa]
Em C
Noches de serenatas
D7 G
el sulky por varias leguas
Am
los sonidos del monte
B7 Em
ya presagiaban la fiesta.
[Riff]
B7 Em A G B7 Em
e|-5-3-2---|---------|---------2-3-|-5-3-2---|

b|-------5-|-5-3-2---|---2-4-5-----|-------5-|

g|---------|-------4-|-4-----------|---------|

D|---------|---------|-------------|---------|

A|---------|---------|-------------|---------|

E|---------|---------|-------------|---------|

[Estrofa]
Em C
Bandoneón y guitarras
D7 G
bombo y violín cielo y tierra
Am
ya comentan algunos
B7 Em
son brujos los de la orquesta.
[Estribillo]
Em C
Volveré a Salavina
D7 G
buscando la chacarera
Am
el Cachilo y el Soco
B7 Em
tocaban a las estrellas.
[Tablatura]
e|-5-3-2---|---------|---------2-3-|-5-3-2---|

b|-------5-|-5-3-2---|---2-4-5-----|-------5-|

g|---------|-------4-|-4-----------|---------|

D|---------|---------|-------------|---------|

A|---------|---------|-------------|---------|

E|---------|---------|-------------|---------|

B7 Em A G B7 Em
e|-5-3-2---|---------|---------2-3-|-5-3-2---|

b|-------5-|-5-3-2---|---2-4-5-----|-------5-|

g|---------|-------4-|-4-----------|---------|

D|---------|---------|-------------|---------|

A|---------|---------|-------------|---------|

E|---------|---------|-------------|---------|

[Estrofa]
Em C
Un mundo primitivo
D7 G
barrancas tierra querida
Am
era la Salamanca
B7 Em
donde aprendieron los Diaz.
[Riff]
B7 Em A G B7 Em
e|-5-3-2---|---------|---------2-3-|-5-3-2---|

b|-------5-|-5-3-2---|---2-4-5-----|-------5-|

g|---------|-------4-|-4-----------|---------|

D|---------|---------|-------------|---------|

A|---------|---------|-------------|---------|

E|---------|---------|-------------|---------|

[Estrofa]
Em C
Alli aprendieron todos
D7 G
la vida y la chacarera
Am
y a sembrar en el aire
B7 Em
lo que cantaba la tierra.
[Riff]
B7 Em A G B7 Em
e|-5-3-2---|---------|---------2-3-|-5-3-2---|

b|-------5-|-5-3-2---|---2-4-5-----|-------5-|

g|---------|-------4-|-4-----------|---------|

D|---------|---------|-------------|---------|

A|---------|---------|-------------|---------|

E|---------|---------|-------------|---------|

[Estrofa]
Em C
A veces tengo miedo
D7 G
de no encontrar lo que busco
Am
de que se haya perdido
B7 Em
mi sueño y ande sin rumbo
[Estribillo]
Em C
Volvere a Salavina
D7 G
buscando la chacarera
Am
el Cachilo y el Soco
B7 Em
tocaban a las estrellas.
Este sitio usa cookies