Chacarera del pensador

Para añadir a una lista personal debes
ó

Raúl Carnota

Versión
estudio
publicado por
iri
Tono
A-
A+
Deslizar
A -> La
Video
Acordes
	 
F79/C Eb79/Bb D#79/A

1|--------3---------| x|------------------| x|-----------------|

2|-----------4------| 2|--------6---------| 2|----------6------|

3|----2-------------| 3|--------6---------| 3|-------5---------|

x|------------------| 4|-----5------------| 4|----4------------|

5|-------3----------| x|------------------| x|-----------------|

x|------------------ 6|--------6---------| 6|-------5---------|

Cm7/G C79/G F#dimm.7

x|-----------------| x|------------------| x|------------------|

2|---------4-------| 2|--------3---------| 2|--1---------------|

3|-------3---------| 3|--------3---------| 3|------2-----------|

4|---1-------------| 4|----2-------------| 4|--1---------------|

x|-----------------| x|------------------| x|------------------|

6|-------3---------| 6|--------3---------| 6|------2----------|

F/G G79 B79/F#

x|-----------------| x|------------------| x|------------------|

2|----1------------| 2|0-----------------| 2|-----2------------|

3|-------2---------| 3|-------2----------| 3|-----2------------|

4|----------3------| 4|----------3-------| 4|--1---------------|

x|-----------------| x|------------------| x|------------------|

6|----------3------| 6|----------3-------| 6|-----2------------|

D79/A

x|-----------------|

2|---------5-------|

3|---------5-------|

4|------4----------|

x|-----------------|

6|---------5-------|

[Intro]
| E B7 |x4
[Estrofa]
E B7 E
Me acusan que soy vago,
A E A
que el trabajo me asusta,
F#7 B7
yo sufro por mi vocación
A E B7 E
solo pensar me gusta.
[Intro]
| E B7 |x3
[Estrofa]
E B7 E
Y paso el día entero,
A E A
arreglando problemas,
F#7 B7
pero me mata la humildad
A E B7 E
nunca nadie se entera.
[Intro]
| E B7 |x3
[Estrofa]
E B7 E
La pucha con mi oficio,
A E A
anónimo y callado,
F#7 B7
de a ratos me da por pensar
A E B7 E
que es un apostolado.
[Estribillo]
E E/G# E/B
Tal vez cuando me entiendan,
A Bm7/b5 C#m7
ya séa un poco tarde,
B7 C#m7 Esus4
pero los pienso perdonar
A A/G# F#m E
soy hombre razonable!
[Intro]
| E B7 |x4
[Estrofa]
E B7 E
Bien tempranito arranco,
A E A
desde mi catre viejo,
F#7 B7
dale que dale sin parar
A E B7 E
meta pensar Canejo!
[Intro]
| E B7 |x3
[Estrofa]
E B7 E
La siesta me relaja,
A E A
tensiones que contraigo,
F#7 B7
la vida del intelectual
A E B7 E
tiene un sabor amargo.
[Intro]
| E B7 |x3
[Estrofa]
E B7 E
Si soy incomprendido
A E A
yo sufro por mi ciencia,
F#7 B7
en el pecado de pensar
A E B7 E
está mi penitencia.
[Estribillo]
E E/G# E/B
Más tarde o más temprano,
A Bm7/b5 C#m7
me volveré famoso,
B7 C#m7 Esus4
porque soy el gran pensador
A A/G# F#m E
del pago de Habrapozo!
Este sitio usa cookies