La Maza

Para añadir a una lista personal debes
ó

Silvio Rodríguez

Versión
estudio
publicado por
rafah
Tono
A-
A+
Deslizar
A -> La
Video
Acordes
	 
[Tablatura]
Am7 E/G# Gm6 D9/F# Fmaj7
E--5-------------4--------3------------2-----1-----------------

A--------------------------------------------------------------

D---------7-6-5-----------------5-4-3----------------3-2-1-----

G----5--------------4-------3------------2------2--------------

B----5----------------5-----3--------------3----1--------------

e----0----------------0-----0--------------0-------------------

C/E D/F# E E7(-9)
E--0---------------------2---------0----------------

A--------------------------------------------2------

D----2---------------------0-----------------3------

G------2-------------2--------2------1-------1------

B--------0-----2-3p0----------3--------0-----3------

e----------1p0----------------2----------1p0--------

Am7 E/G# Gm6 D9/F# Fmaj7
E--5-------------4--------3------------2-----1-----------------

A--------------------------------------------------------------

D---------7-6-5-----------------5-4-3----------------3-2-1-----

G----5--------------4-------3------------2------2--------------

B----5----------------5-----3--------------3----1--------------

e----0----------------0-----0--------------0-------------------

C/E D/F# E E7(-9) E E7(-9)
E--0---------------------2---------0-------------0--------------

A--------------------------------------------2--------------2---

D----2---------------------0-----------------3--------------3---

G------2-------------2--------2------1-------1-----1--------1---

B--------0-----2-3p0----------3--------0-----3-------0------3---

e----------1p0----------------2----------1p0-----------1p0------

Am G F E E7(-9) Am7
E-------------------------3---1--0--------------5-------------5----------

A-0-----------0--0--------2---3------------2-----------------------------

D---2---------2----2------0---3------------3-----------------------------

G-----2-------2------2----0---2----1-------1------5-------5-----5------5-

B-------------1--------1--3---1------0-----3--------5---5---------5--5---

e---------1-0-------------3---1--------1p0------------0-------------0----

[Estrofa]
Am E/G#
Si no creyera en la locura
Gm6 D9/F#
de la garganta del sinsonte
Fmaj7 C/E
si no creyera que en el monte
D/F# E E7(-9)
se esconde el trino y la pavura
[Estrofa]
Am E/G#
Si no creyera en la balanza
Gm6 D9/F#
en la razón del equilibrio
Fmaj7 C/E
si no creyera en el delirio
D/F# E E7(-9)
si no creyera en la esperanza
[Estrofa]
Am E/G#
Si no creyera en lo que agencio
Gm6 D9/F#
si no creyera en el camino
Fmaj7 C/E
si no creyera en el sonido
D/F# E E7(-9)
si no creyera en mi silencio
[Estribillo]
E E7(-9)
qué cosa fuera
E E7(-9)
que cosa fuera
Am
la maza sin cantera
G F E E7(-9) E
un amasijo hecho de cuerdas y tendones
E7(-9) Am
un revoltijo de carne con madera
G F E E7(-9) E
un instrumento sin mejores resplandores
E7(-9) Am
qué lucecitas montadas para escena
G F E Fdim Ddim
qué cosa fuera, corazón, qué cosa fuera
Fdim Am
qué cosa fuera la maza sin cantera
G F E Fdim Ddim
un testaferro del traidor de los aplausos
Fdim Am
un servidor de pasado en copa nueva
G F E Fdim Ddim
un eternizador de dioses del ocaso
Fdim Am
júbilo hervido con trapo y lentejuela
G F E Fdim Ddim
qué cosa fuera, corazón, qué cosa fuera
Fdim Am
qué cosa fuera la maza sin cantera
[Instrumental]
G F E Fdim Ddim Fdim Am Dm Am G F Fdim Fdim7 Am
[Estrofa]
Am E/G#
si no creyera en lo más duro
Gm6 D9/F#
si no creyera en el deseo
Fmaj7 C/E
si no creyera en lo que creo
D/F# E
si no creyera en algo puro
[Estrofa]
Am E/G#
Si no creyera en cada herida
Gm6 D9/F#
si no creyera en la que ronde
Fmaj7 C/E
si no creyera en lo que esconde
D/F# E E7(-9)
hacerse hermano de la vida
[Estrofa]
Am E/G#
Si no creyera en quien me escucha
Gm6 D9/F#
si no creyera en lo que duele
Fmaj7 C/E
si no creyera en lo que quede
D/F# E Fdim
si no creyera en lo que lucha
[Estribillo]
E Fdim
qué cosa fuera
Ddim Fdim
que cosa fuera
Am
la maza sin cantera
G F E Fdim
un amasijo hecho de cuerdas y tendones
Ddim Fdim Am Dm7 Am
un revoltijo de carne con madera
G F E Fdim Ddim
un instrumento sin mejores resplandores
Fdim Am Dm7 Am
qué lucecitas montadas para escena
G F E Fdim Ddim
qué cosa fuera, corazón, qué cosa fuera
Fdim Am Dm7 Am
qué cosa fuera la maza sin cantera
G F E Fdim Ddim
un testaferro del traidor de los aplausos
Fdim Am Dm7 Am
un servidor de pasado en copa nueva
G F E Fdim Ddim
qué cosa fuera, corazón, qué cosa fuera
Fdim Am
qué cosa fuera la maza sin cantera
G F E Fdim Ddim
un eternizador de dioses del ocaso
Fdim Am
júbilo hervido con trapo y lentejuela
G F E Fdim Ddim
qué cosa fuera, corazón, qué cosa fuera
Fdim Am Dm7 Am
qué cosa fuera la maza sin cantera
G F E Fdim Ddim
qué cosa fuera, corazón, qué cosa fuera
Fdim Am Dm7 Am
qué cosa fuera la maza sin cantera
[Instrumental]
G F E E7(-9) Am
E A D G B E

2 0 0 2 3 0 - D9/F#

0 2 3 1 3 0 - E7(-9) (E7b9)

4 X X 4 5 0 - E/G#

3 X 0 3 3 3 - Gm6

X X 3 2 1 0 - Fmaj

X X 2 0 1 0 - C/E

1 2 3 1 3 1 - Fdim Cejilla 1° traste

X 5 6 4 6 4 - Ddim Cejilla 4° traste

X X 3 4 3 4 - Fdim7

Este sitio usa cookies