El Golem de Paternal

Para añadir a una lista personal debes
ó

Skay Beilinson

Versión
estudio
publicado por
rafah
Tono
A-
A+
Deslizar
A -> La
Video
Acordes
	 
Riff 1 :

e|-------------------------

B|-------------------------

G|2-----2----2----------5--

D|-----------------3-------

A|--0-0--0-0---0-0---0----0

E|-------------------------

Riff 2 :

e|4/5-5-5-5-5-5-5----------

B|4/5-5-5-5-5-5-5----------

G|-------------------------

D|-------------------------

A|-------------------------

E|-------------------------

Riff 3 :

e|-------------------------

B|-------------------------

G|7/5-7--------------------

D|------7------------------

A|-------------------------

E|-------------------------

[Intro]

Riff 1 x8
F + [Riff 2 x2]
F E
[Estrofa]
[Sobre Riff 1]
Cerró sus ojos para no ver

Tapó su boca para no hablar

Apretó los puños para no gritar

Guardó los sueños en el placard.
[Estrofa]
F [Riff 2 x2]
El es el zombie de la Paternal
F E
Un nuevo golem en la ciudad.
[Estrofa]

Riff 2 x3 Riff 3

Riff 2 x3 Riff 3
[Estrofa]
F [Riff 2 x2]
El es el zombie de la Paternal
F E
Un nuevo golem en la ciudad.
[Estrofa]

Riff 2 x3 Riff 3

Riff 2 x3 Riff 3
[Estrofa]
F [Riff 2 x2]
El es el zombie de la Paternal
F E
Un nuevo golem en la ciudad.
[Solo]
Riff 2 x3 Dm

Riff 2 x3 Riff 3

[Estrofa]
[Sobre Riff 1]
Esta mañana lo ví pasar

Un raro brillo en su mirar

No dijo nada solo ladró.
[Estrofa]
F [Riff 2 x2]
Ladró su rabia, ladró feroz
F E
Ladró el golem de Paternal.
[Outro]

Riff 1
Este sitio usa cookies