Imágenes Retro

Para añadir a una lista personal debes
ó

Soda Stereo

Versión
vivo
publicado por
iri
Tono
A-
A+
Deslizar
A -> La
Video
Acordes
	 
[Intro]
e|---------12---10----8----777-------|

B|---10----10---10----10---888-------|

G|---9-----9----9-----10---999-------|

D|---10----10---10-------------------|

A|-----------------------------------|x3

E|-----------------------------------|

E|--777-|--888--|--7--|

B|--888-|--888--|--8--|

G|--777-|--777--|--7--|

D|------|-------|-----|

A|------|-------|-----|

E|------|-------|-----|

E|--------------------|

B|-12͡13-13--13-13-12\-|

G|-12---12--12-12-12\-|

D|-12͡14-14--14-14-12\-|

A|--------------------|

E|--------------------|

[Intro]
Am Em Em Am Em G
[Estrofa]
Am Em
Debo tomar el antídoto
G Dm
para romper con la rigidez.
Am Em
Vivo como un sonámbulo,
G F
buscando pliegues en la pared.
[Intro]
e|---------12---10----8----777-------|

B|---10----10---10----10---888-------|

G|---9-----9----9-----10---999-------|

D|---10----10---10-------------------|

A|-----------------------------------|x3

E|-----------------------------------|

E|--777-|--888--|--7--|

B|--888-|--888--|--8--|

G|--777-|--777--|--7--|

D|------|-------|-----|

A|------|-------|-----|

E|------|-------|-----|

E|---------------------|

B|-12͡13-13--13-13-12\-|

G|-12----12--12-12-12\-|

D|-12͡14-14--14-14-12\-|

A|---------------------|

E|---------------------|

[Intro]
Am Em Em Am Em G
[Estribillo]
F G F G
Telarañas, sueño con telarañas.
F G Dsus4 C
Telarañas, que cuelgan de mí.
[Estrofa]
Am Em
Esto parece un museo de cera.
G Dm
Un simulacro demasiado real.
Am Em
Debo encontrar algún sitio afuera
G F
debo cambiar la escena, entre.
[Estribillo]
F G F G
Telarañas, sueño con telarañas.
F G Dsus4 Csus2
Telarañas, que cuelgan de mí.
[Tablatura]
G A F Em7
e|------7-----|------9------|-----5------|-------7------|

B|--------8---|--------10---|-------6----|---------8----|

G|-0--------7-|-----------9-|---------5--|-----------7--|

D|------------|-7-----------|-3----------|-7------------|

A|------------|-------------|------------|--------------|

E|------------|-------------|------------|--------------|

Am Dm
e|-5-5-------5-5------|-5-5-5------|

B|-5-5-------5-5------|-5-5-6------|

G|-5-5--x-x--5-5--x-x-|-5-5-7--x-x-|

D|-7-7--x-x--7-7--x-x-|-7-7-7--x-x-|

A|-7----x-x--7----x-x-|--------x-x-|

E|--------------------|------------|x2

G A E Em7
e|------7-----|------9------|-----5------|-------7------|

B|--------8---|--------10---|-------6----|---------8----|

G|-5--------7-|-----------9-|---------5--|-----------7--|

D|------------|-7-----------|-3----------|-7------------|

A|------------|-------------|------------|--------------|

E|------------|-------------|------------|--------------|

[Puente]
G A F
Mis ojos perciben otra vez,
Em
imágenes retro.
G A F
Así es la trama de este film
Em
tu propio reflejo.
Am (Am Dm Am Dm)
Reflejo.
[Instrumental]
[Puente]
G A F
Mis ojos perciben otra vez
Em
imágenes retro,
G A F
reproduciéndose sin fin
Em
dejándome inmóvil, entre...
[Estribillo]
F G F G
Telarañas, sueño con telarañas.
F G Dsus4 Csus2
Telarañas, que cuelgan de mí
F G F G
Telarañas, sueño con telarañas.
F G Dsus4 Csus2
Telarañas, que cuelgan de mí.
[Outro]
Dsus4 D Csus2

Dsus4 D Csus2 (G)

Fue