Juego de Seducción

Para añadir a una lista personal debes
ó

Soda Stereo

Versión
vivo
publicado por
iri
Tono
A-
A+
Deslizar
A -> La
Video
Acordes
	 
[Intro]
B5
|-12p11------------------12p11---------------------------|

|-------12-10------10h12--------12--10----10-12----------|

|---------------11---------------------11----------------|

|--------------------------------------------------------|

|--------------------------------------------------------|

|--------------------------------------------------------|

F#m
|-12p11----------------------------14p11--12p11--------|

|-------12--10-----10--12--10------------------12------|

|---------------11-------------------------------------|

|------------------------------------------------------|

|------------------------------------------------------|

|------------------------------------------------------|

A
|-12p11------------------12p11---------------------------|

|-------12-10------10h12--------12--10----10-12----------|

|---------------11---------------------11----------------|

|--------------------------------------------------------|

|--------------------------------------------------------|

|--------------------------------------------------------|

E
|-12-11----------------12-14-11-12-11---------|

|-------12-10----10-12----------------12s-----|

|-------------11------------------------------|

|---------------------------------------------|

|---------------------------------------------|

|---------------------------------------------|

B5
|-12-11----------------12-11------------------|

|-------12-10----10-12-------12-10----10-12~--|

|-------------11-------------------11---------|

|---------------------------------------------|

|---------------------------------------------|

|---------------------------------------------|

F#m
|-12-11-------------------14~~~~--------------|

|-------12-10----10-12-10---------------------|

|-------------11------------------------------|

|---------------------------------------------|

|---------------------------------------------|

|---------------------------------------------|

A
|-12-11----------------12-11------------------|

|-------12-10----10-12-------12-10----10-12~--|

|-------------11-------------------11---------|

|---------------------------------------------|

|---------------------------------------------|

|---------------------------------------------|

E
1|-12~~-11~~-----------------------------------|

2|-----------12~~------------------------------|

3|----------------11~~-------------------------|

|----------------------------------------------|

|----------------------------------------------|

|----------------------------------------------|

[Estrofa]
B F#m
VOY A SER TU MAYORDOMO
A E
Y VOS HARAS EL ROL DE SEÑORA BIEN
B F#m
O PUEDO SER TU VIOLADOR
A D C#m B
LA IMAGINACION ESTA NOCHE TODO LO PUEDE
E A
...
[Estribillo]
G B E A
TE LLEVARE HASTA EL EXTREMO
G B E A
TE LLEVARE EH EH EH
G B E A G
ABRAZAME, ESTE ES EL JUEGO DE SEDUCCION
[Estrofa]
B F#m
ESTAMOS SOLOS EN LA SELVA
A E
NADIE PUEDE VENIR A RESCATARNOS
B F#m
ESTOY MURIENDOME DE SED
A
Y ES TU PROPIA PIEL
D C#m B
LA QUE ME HACE SENTIR ESTO
E A
...
[Estribillo]
G B E A
TE LLEVARE HASTA EL EXTREMO
G B E A
TE LLEVARE EH EH EH
G B E A G
ABRAZAME, ESTE ES EL JUEGO DE SEDUCCION
[Tablatura]
|-0-0-0-0---------|-0-0-0-0---------|-0-0-0-0-5/(7)5--|

|-0-0-0-0---------|-0-0-0-0-5/(7)5--|-0-0-0-0---------|

|-3-3-3-3-4/(6)4--|-3-3-3-3---------|-3-3-3-3---------|

|-4-4-4-4---------|-4-4-4-4---------|-4-4-4-4---------|

|-4-4-4-4---------|-4-4-4-4---------|-4-4-4-4---------|

|-----------------|-----------------|-----------------|

|--5p2-------------------------|

|------5p0--2-5----------------|

|----------------5-4-2---------|

|----------------------4-2/14--|

|------------------7-5~--------|

|------------------------------|

[Intro]
|-12-11----------------12-11-------------------|

|-------12-10----10-12-------12-10----10-12~---|

|-------------11-------------------11----------|

|----------------------------------------------|

|----------------------------------------------|

|----------------------------------------------|

|-12-11----------------12-14-11-12-11----------|

|-------12-10----10-12----------------12s------|

|-------------11-------------------------------|

|----------------------------------------------|

|----------------------------------------------|

|----------------------------------------------|

|-12-11----------------12-11-------------------|

|-------12-10----10-12-------12-10----10-12~---|

|-------------11-------------------11----------|

|----------------------------------------------|

|----------------------------------------------|

|----------------------------------------------|

|-12-11----------------------------------------|

|-------12-10----10-12-12/14-14/16-16/18-18----|

|-------------11-------------------------------|

|----------------------------------------------|

|----------------------------------------------|

|----------------------------------------------|

|-12-11----------------12-11-------------------|

|-------12-10----10-12-------12-10----10-12~---|

|-------------11-------------------11----------|

|----------------------------------------------|

|----------------------------------------------|

|----------------------------------------------|

|-12-11-------------------14~~-----------------|

|-------12-10----10-12-10----------------------|

|-------------11-------------------------------|

|----------------------------------------------|

|----------------------------------------------|

|----------------------------------------------|

|-12-11----------------12-11-------------------|

|-------12-10----10-12-------12-10----10-12e---|

|-------------11-------------------11----------|

|----------------------------------------------|

|----------------------------------------------|

|----------------------------------------------|

|-11~12~11~12----------------------------------|

|--------10~12~10~12---------------------------|

|--------------------9~11~9~11-----------------|

|----------------------------------------------|

|----------------------------------------------|

|----------------------------------------------|

[Tablatura]
Oh Oh Oh Oh Oh Oh Oh
|-----0----------------------------------------|

|-----2-----2--------------------2-----2-------|

|----4-----4--------------------4------4-------|

|-5-------5------------------5---------4-------|

|----------------------------------------------|

|--------------------------------------4-------|

[Estribillo]
G B E A
TE LLEVARE HASTA EL EXTREMO
G B E A
TE LLEVARE EH EH EH
G B E A G
ABRAZAME, ESTE ES EL JUEGO DE SEDUCCION
[Estrofa]
B F#m
ESTOY MURIENDOME DE SED
A
Y ES TU PROPIA PIEL
D C#m
LA QUE ME HACE MOVER
D C#m
ME HACE MOVER
D C#m F#
ME HACE MOVER EN EXTREMOS.
[Tablatura]
|-----------------------------0---------------------|

|-------2--------2--------2----------------------2--|

|-----4--------3------------4----------------4------|

|-5-5------4-4------5-5-5----------------------4----|

|---------------------------------------------------|

|--------------------------------------4-4-4--------|

|--------------------------------0--|

|-------2--------2--------2------2--|

|-----4--------3------------4----4--|

|-5-5------4-4------5-5-5--------5--|

|-----------------------------------|

|-----------------------------------|

Fue