Tele-Ka

Para añadir a una lista personal debes
ó

Soda Stereo

Versión
estudio
publicado por
fabricio
Tono
A-
A+
Deslizar
A -> La
Video
Acordes
	 
[Intro]
| A | C#m | F#m | E | D | F | A# | E |x4
[Estrofa]
A C#m F#m E D F
Dejalo ser, dejalo sacudirse bien
A# E
No hay trampa en esto
A C#m F#m E D F
Ya vas a ver como tu cuerpo se abre
A# E Dm
No esperes mas de mi.
[Tablatura]
|------------------------------------------|

|--------8-10------------------------------|

|---5-7-----------5h7-7-7--5h7-------------|

|------------------------------------------|

|------------------------------------------|

|------------------------------------------|

[Estribillo]
Am C G E
Tele, telekinesis
Am C G E
Moveras tus pies
Am C G E
Tele, telekinesis
Am C G E
Moveras tus pies
[Estrofa]
A C#m F#m E D F
Aumentan decibeles, se quiebran las paredes
A# E
Soltemos todo
A C#m F#m E D F
Con tanta fuerza, con tanta electricidad
A# E Dm
Tendremos que entender
[Tablatura]
|------------10̴-12̴-13̴-12̴-̴-10̴-12̴-13̴-15̴-17---|

|--10̴̴̴̴----13̴--------------------------------|

|------------------------------------------|

|------------------------------------------|

|------------------------------------------|

|------------------------------------------|

[Estribillo]
Am C G E
Tele, telekinesis
Am C G E
Moveras tus pies
Am C G E
Tele, telekinesis
Am C G E
Moveras tus pies
[Solo]
[Solo]
|--------------------------5-|---------------------------10-|--------------|

|--3/(5)/(5)/(5)/(5)/(5)-5---|--3/(5)/(5)/(5)/(5)/(5)-5-----|--------------|

|----------------------------|------------------------------|----7/(9)--7--|

|----------------------------|------------------------------|--------------|

|----------------------------|------------------------------|--------------|

|----------------------------|------------------------------|--------------|

[Estrofa]
A C#m F#m E D F
Dejalo ser, dejalo sacudirse bien
A# E
No hay trampa en esto
A C#m F#m E D F
Ya vas a ver como tu cuerpo se abre
A# E
No esperes mas de mi
[Tablatura]
|----8------------|--------------------|---------------------------|

|--8---6-8---8-8--|--8-----------------|-----------------8-8/(10)--|

|-----------------|----5-7-7--------5--|--7/(9)\7-5-7-5------------|

|-----------------|------------5-7-----|---------------------------|

|-----------------|--------------------|---------------------------|

|-----------------|--------------------|---------------------------|

[Puente]
| Am F G |x2
[Puente]
Am F G
No esperes mas de mi
Am F G
No esperes mas de mi
Am F G
No esperes mas de mi
Am F G
No esperes mas de mi
Am F G
No esperes mas de mi
Am F G
No esperes mas de mi
[Outro]
Am B C D A
No esperes, no esperes mas de mi
Fue