Versión
estudio
publicado por
iri
Tono
A-
A+
Deslizar
A -> La
Video
Acordes
	 
[Riff]
e|------------------------------|--------------------|

b|------------------------------|--3---3--3----6---8-|

g|------------------------------|--5---5--5----5---7-|

D|-----------------5------------|--5---5--5----4---6-|

A|-------------5/7----5h7p5/3--0|--------------5---7-|

E|-0-3p0-3p0--------------------|--------------------|

e|---------------|---------------------|

b|---------------|--3---3--3----6---8--|

g|---------------|--5---5--5----5---7--|

D|------7--------|--5---5--5----4---6--|x5

A|--5/7---7p5p3-0|--------------5---7--|

E|---------------|---------------------|

[Tablatura]
fill

e|---------------|

b|---------------|

g|---------------|

d|------7--------|

a|--5/7---7p5p3-0|

E|---------------|

[Estrofa]
Am11 D7/#9 E7/#9 (fill)
Tienes un poder me jor
Am11 D7/#9 E7/#9 (fill)
tienes un nuevo re loj
Am11 D7/#9 E7/#9 (fill) D7/#9 E7/#9
ya no tienes cuen ta en el sol.
[Estrofa]
Am11 D7/#9 E7/#9 (fill)
Quieres un mejor lu gar
Am11 D7/#9 E7/#9 (fill)
quieres un mejor dor mir
Am11 D7/#9 E7/#9 (fill) D7/#9 E7/#9
ya no tienes cuen ta en el sol, no.
[Estribillo]
C6/9/b11 Bb9
Es este mundo de locos y fachistas
Am7 D7/#9 E7/#9 (fill)
dime nena como puedo yo cambiarlo.
[Riff]
e|------------------------------|--------------------|

b|------------------------------|--3---3--3----6---8-|

g|------------------------------|--5---5--5----5---7-|

D|-----------------5------------|--5---5--5----4---6-|

A|-------------5/7----5h7p5/3--0|--------------5---7-|

E|-0-3p0-3p0--------------------|--------------------|

e|---------------|---------------------|

b|---------------|--3---3--3----6---8--|

g|---------------|--5---5--5----5---7--|

D|------7--------|--5---5--5----4---6--|

A|--5/7---7p5p3-0|--------------5---7--|

E|---------------|---------------------|

[Estrofa]
Am11 D7/#9 E7/#9 (fill)
Puedes mejorar la luz
Am11 D7/#9 E7/#9 (fill)
puedes mejorar la cruz
Am11 D7/#9 E7/#9 (fill) D7/#9 E7/#9
ya no te interesa ayudar, ni ahí
[Estrofa]
Am11 D7/#9 E7/#9 (fill)
Puedes mejorar el lifting
Am11 D7/#9 E7/#9 (fill)
aunque puedes mendigar
Am11 D7/#9 E7/#9 (fill) D7/#9 E7/#9
lo que tienes es petróleo en el mar, ah
[Estribillo]
C6/9/b11 Bb9
Es este mundo de locos y fascistas
Am7 D7/#9 E7/#9 (fill)
dime nena como puedo yo cambiarlo
[Riff]
e|------------------------------|--------------------|

b|------------------------------|--3---3--3----6---8-|

g|------------------------------|--5---5--5----5---7-|

D|-----------------5------------|--5---5--5----4---6-|

A|-------------5/7----5h7p5/3--0|--------------5---7-|

E|-0-3p0-3p0--------------------|--------------------|

[Solo]
Am11 D7/#9 E7/#9
[Riff]
e|------------------------------|--------------------|

b|------------------------------|--3---3--3----6---8-|

g|------------------------------|--5---5--5----5---7-|

D|-----------------5------------|--5---5--5----4---6-|

A|-------------5/7----5h7p5/3--0|--------------5---7-|

E|-0-3p0-3p0--------------------|--------------------|

Si, cuidado con el bobero nena
[Riff]
e|------------------------------|--------------------|

b|------------------------------|--3---3--3----6---8-|

g|------------------------------|--5---5--5----5---7-|

D|-----------------5------------|--5---5--5----4---6-|

A|-------------5/7----5h7p5/3--0|--------------5---7-|

E|-0-3p0-3p0--------------------|--------------------|

[Estrofa]
Am11 D7/#9 E7/#9 (fill)
Tienes un lugar mejor
Am11 D7/#9 E7/#9 (fill)
tienes un mejor dormir
Am11 D7/#9 E7/#9 (fill) D7/#9 E7/#9
ya no tienes la cuenta en el sol
[Estrofa]
Am11 D7/#9 E7/#9 (fill)
Puedes mejorar el lifting
Am11 D7/#9 E7/#9 (fill)
aunque puedes mendigar
Am11 D7/#9 E7/#9 (fill) D7/#9 E7/#9
lo que tienes es petróleo en el mar (hasta las orejas)
[Estribillo]
C6/9/b11 Bb9
Es este mundo de locos y fascistas
Am7 D7/#9 E7/#9 (fill)
dime nena como puedo yo, ufa! cambiarlo
[Outro]
Am11 D7/#9 E7/#9

Am11 D7/#9 E7/#9

[Riff]
e|------------------------------|--------------------|

b|------------------------------|--3---3--3----6---8-|

g|------------------------------|--5---5--5----5---7-|

D|-----------------5------------|--5---5--5----4---6-|

A|-------------5/7----5h7p5/3--0|--------------5---7-|

E|-0-3p0-3p0--------------------|--------------------|

e|---------------|---------------------|

b|---------------|--3---3--3----6---8--|

g|---------------|--5---5--5----5---7--|

D|------7--------|--5---5--5----4---6--|x5

A|--5/7---7p5p3-0|--------------5---7--|

E|---------------|---------------------|

Este sitio usa cookies