Puedo Morir, Puedo Caer

Para añadir a una lista personal debes
ó

Usted Señalemelo

Versión
estudio
1+
publicado por
iri
Tono
A-
A+
Deslizar
A -> La
Video
Acordes
	 
Emaj7 07680x

*Emaj7 07690x

Amaj9 5464xx

*Amaj9 5474xx

Esus2 x79977

B 799877

[Tablatura]
e|------------------------------|-7---7s1-|---------|

B|------------------------------|-9---9s3-|---------|

G|------------------------------|-8---7s1-|-11--9---|

D|------------------------------|-9---9s3-|---------|

A|---7-6-7--7--6h7--9-7-6-------|-7---7s1-|---------|

E|-0--------0-------------------|---------|---------|

e|-7---7s1-|-7---7s1-|---------|

B|-9---9s3-|-9---9s3-|---------|

G|-7---7s1-|-7---7s1-|-11--9---|

D|-9---9s3-|-9---9s3-|---------|

A|-7---7s1-|-7---7s1-|---------|

E|---------|---------|---------|

[Estrofa]
Emaj7 Amaj9
Si caíste dentro puedes entender
Emaj7 Amaj9
Vamos con el viento en vez de volver
Emaj7 Amaj9
Sentir los maullidos yo también cambie
Emaj7 Amaj9
Rompí en lo intenso, una y otra vez
[Estribillo]
Esus2
Allí en la montaña puedo morir
B Riff 2
puedo caer
[Tablatura]
Riff 2
e|---7--------|

B|--7---7-----|

G|-8------8---|

D|----------9-|

A|------------|

E|------------|

[Puente]
Amaj9-*Amaj9 B Riff 2 Amaj9-*Amaj9
[Puente]
[Emaj7-*Emaj7 Amaj9-*Amaj9]x2
[Tablatura]
e|---------|

b|---------|

g|---------|

D|---------|

A|---------|

E|-5-4-3-2-|

[Estrofa]
Emaj7 Amaj9
Tu vino sangriento soy demonio fiel
Emaj7 Amaj9
De encender el fuego y ver todo arder
[Estribillo]
Esus2
Allí en las cascadas puedo morir
B Riff 2 Amaj9-*Amaj9 B Riff 2 Amaj9-*Amaj9
puedo caer
[Tablatura]
e|---7--------|

B|--7---7-----|

G|-8------8---|

D|----------9-|

A|------------|

E|------------|

F.T
Este sitio usa cookies