Sin disfraz

+ nueva lista

Virus

Versión
estudio
publicado por
iri
Tono
A-
A+
Deslizar
A -> La
Video
Acordes
	 
[Riff]
Em

e|---|-----|-------|-----|-----|

b|---|-----|-------|-----|-----|

g|---|-----|-------|-----|-----| (x2)

D|---|-----|-------|-----|-----|

A|---|-----|-------|---5-|-5-7-|

E|-0-|-5-7-|-7-7-5-|-5---|-----|

[Riff]
F#m

e|---|-----|-------|-----|-----|

b|---|-----|-------|-----|-----|

g|---|-----|-------|-----|-----| (x2)

D|---|-----|-------|---2-|-2-4-|

A|---|-2-4-|-4-4-2-|-2---|-----|

E|-2-|-----|-------|-----|-----|

Los acordes hacerlos sobre las primeras tres cuerdas.
[Intro]
(Em - Em- F#m - F#m) x 5 veces
[Estrofa]
Em Em F#m F#m
A veces voy, donde reina el mar
Em Em F#m F#m
es mi lugar, llego sin disfraz
[Puente]
(Em - Em- F#m - F#m) x 2 veces
[Estrofa]
Em Em F#m F#m
Por un minuto, abandono el frac
Em Em F#m F#m
y me desnudo, en lo espiritual, para amar
Em Em F#m F#m
como si fuera, mentiroso y nudista
Em Em F#m F#m
en taxi voy, Hotel Savoy y bailamos
Em Em F#m F#m
y ya no se, si es hoy,ayer o mañana
Em Em F#m F#m
Wooo, ooouo, Wooo oh oh
[Puente]
(Em - Em- F#m - F#m) x 5 veces
[Estribillo]
Em Em F#m F#m
Fue ayer, persiste el olor
Em Em F#m F#
de esa piel, morena y sensual, perfumada
[Puente]
(Em - Em- F#m - F#m) x 2 veces
[Estrofa]
Em Em F#m F#m
Y hoy me, visto demodé y normal
Em Em F#m F#m
no me preocupa, parecer vulgar Uh Uh!
Em Em F#m F#m
como si fuera, mentiroso y nudista Wooo oh oh
Em Em F#m F#m
en taxi voy, hotel Savoy y bailamos
Em Em F#m F#m
y ya no sé, si es hoy ayer o mañana
Em Em F#m F#m
Woo uo, woo uo, Woo ouuuuh uh uh
[Puente]
(Em - Em- F#m - F#m) x 2 veces
[Estrofa]
Em Em F#m F#m
Woouo, woouo, Woo oh oh
Em Em F#m F#m
Woouo, woouo, Woo oh oh uh uuuh
Em Em F#m F#
Daay rara daay rara, dararrrira
Em Em F#m F#
Daay rara daay rara, dararrrira
[Outro]
Em Em F#m F#
Daay rara daay rara, dararrrira
Em Em F#m F#
Daay rara daay rara, dararrrira
Este sitio usa cookies