Gotta Get Out

Pour ajouter une playlist personnelle, vous devez vous
or vous

5 Seconds of Summer

Version
studio
publié par
rafah
Ton
A-
A+
Glisser
A -> La
Video
[Capo en 2]
Accords
Traduction
	 
[Intro]
e|-------------------------------------------------------------------------|

B|-------------------------------------------------------------------------|

G|------0--------0--------0--------0--------0---------0--------0-------0---|

D|----0---0----0---0----0---0----0---0----0---0-----0---0----0---0---0---0-|

A|--3--------3--------5--------5---------2--------2--------3------3--------|

E|-------------------------------------------------------------------------|

[Tab]
e|-------------------------------------------------------------------------|

B|-------------------------------------------------------------------------|

G|------0--------0--------0--------0--------0---------0--------0-------0---|

D|----0---0----0---0----0---0----0---0----0---0-----0---0----0---0---0---0-|

A|--3--------3--------5--------5---------2--------2--------3------3--------|

E|-------------------------------------------------------------------------|

over verse

[Strophe]
even when the sky is falling down
even when the earth is crumbling around my feet
even when we try to say goodbye
you can cut the tension with a knife in here
Em Cmaj7
cause I know what will happen
D
if we get through this
[Refrain]
G C
and if the earth ends up crumbling down to its knees baby
Em D Cadd9
we just gotta get out, we just gotta get out
G C
and if the skyscrapers tumble down and crash around then baby
Em D Cadd9
we just gotta get out, we just gotta get out
[Tab]
e|-------------------------------------------------------------------------|

B|-------------------------------------------------------------------------|

G|------0--------0--------0--------0--------0---------0--------0-------0---|

D|----0---0----0---0----0---0----0---0----0---0-----0---0----0---0---0---0-|

A|--3--------3--------5--------5---------2--------2--------3------3--------|

E|-------------------------------------------------------------------------|

over verse

[Strophe]
I feel so damn lost
and it comes with a cost
Cmaj7
of being alone
C G Em D
everything is falling down we're suffering hopeless thought
C G Em D
and out we sing prayers go to the sky
[Refrain]
G C
and if the earth ends up crumbling down to its knees baby
Em D Cadd9
we just gotta get out, we just gotta get out
G C
and if the skyscrapers tumble down and crash around then baby
Em D Cadd9
we just gotta get out, we just gotta get out
[Pont]
D Cadd9
and if we fall (it's not your fault)
D Cadd9
shadow covering (our selfish foes)
D Cadd9 D Cadd9
and as our love (go out of the high note)
[Tab]
e|-------------------------------------------------------------------------|

B|-------------------------------------------------------------------------|

G|------0--------0--------0--------0--------0---------0--------0-------0---|

D|----0---0----0---0----0---0----0---0----0---0-----0---0----0---0---0---0-|

A|--3--------3--------5--------5---------2--------2--------3------3--------|

E|-------------------------------------------------------------------------|

even when the sky is falling down


even when the earth is crumbling around my feet

Cmaj7
around my feet
[Refrain]
G C
and if the earth ends up crumbling down to its knees baby
Em D Cadd9
we just gotta get out, we just gotta get out
G C
and if the skyscrapers tumble down and crash around then baby
Em D Cadd9
we just gotta get out, we just gotta get out
[Outro]
Cadd9 D Em G
and if the earth ends up crumbling down to its knees then baby
Cadd9 D G
we just gotta get out, we just gotta get out
Ce site utilise des cookies